Guitar Tabs, Chords and Lyrics
Login is temporarily disabled for some users. Do not panic. Will be back in an hour or two. DO NOT REREGISTER!!


Colour My World  Chicago

Colour My World - Chicago
Tablature by Keith Fleetwood
Piano and flute parts for guitar. Bass is not included.
INTRO: 3/4
[FMaj7] [Am]  
 
 e||-------0-----|-------0-----|-------0-----|-------0-----|-------0-----|-------0-----|
 B||-----1---1---|-----1---1---|-----1---1---|-----1---1---|-----1---1---|-----1---1---|
 G||---2-------2-|---2-------2-|---2-------2-|---2-------2-|---2-------2-|---2-------2-|
 D||-3-----------|-3-----------|-3-----------|-3-----------|-2-----------|-2-----------|
 A||-------------|-------------|-------------|-------------|-------------|-------------|
 E||-------------|-------------|-------------|-------------|-------------|-------------|

[Bb] [EbMaj9] [AbMaj7]  
 
 e|-------1-----|-------1-----|-------------|-------------|-------3-----|-------3-----|
 B|-----3---3---|-----3---3---|-------6-----|-------6-----|-----4---4---|-----4---4---|
 G|---3-------3-|---3-------3-|-----7---7---|-----7---7---|---5-------5-|---5-------5-|
 D|-3-----------|-3-----------|---5-------5-|---5-------5-|-6-----------|-6-----------|
 A|-------------|-------------|-6-----------|-6-----------|-------------|-------------|
 E|-------------|-------------|-------------|-------------|-------------|-------------|

[GbMaj7] [D9] [D7] [GMaj7]  
 
 e|-------1-----|-------1-----|-------------|-------------|-------2-----|-------2-----|
 B|-----2---2---|-----2---2---|-------5-----|-------3-----|-----3---3---|-----3---3---|
 G|---3-------3-|---3-------3-|-----5---5---|-----5---5---|---4-------4-|---4-------4-|
 D|-4-----------|-4-----------|---4-------4-|---4-------4-|-5-----------|-5-----------|
 A|-------------|-------------|-5-----------|-5-----------|-------------|-------------|
 E|-------------|-------------|-------------|-------------|-------------|-------------|

[Eb9] [Eb7] [Eb9] [C7] [C7sus4] [C7] [C7]  
 
 e|-------------|-------------|-------0-----|-1-----0-----|-------0-----|-------0-----|
 B|-------6-----|-8-----6-----|-----1---1---|---1-----1---|-----1---1---|-----1---1---|
 G|-----6---6---|---6-----6---|---3-------3-|-----3-----3-|---3-------3-|---3-------3-|
 D|---5-------5-|-----5-----5-|-------------|-------------|-------------|-------------|
 A|-6-----------|-------------|-3-----------|-------------|-3-----------|-3-----------|
 E|-------------|-------------|-------------|-------------|-------------|-------------|

[FMaj7] [Bb] [C7] [(FMaj7)]  
 
 e|-------0-----|-------------||
 B|-----1---1---|-----3-----5-||
 G|---2-------2-|---3-----3---||
 D|-3-----------|-3-----5-----||
 A|-------------|-------------||
 E|-------------|-------------||

As time goes [Fmaj7]on I reali[Am]ze Just what you [Bb]mean to[Ebmaj9] me
And [Abmaj7]now now that you‚[Gbmaj7]??re near promise you[D9]r love[D7]
That I‚??ve waited t[Gmaj7]o share an[Eb9]d dreams of our moments [C7]together
[C7] Colour my world with [Fmaj7]hopes [Bb] of [C7]loving[Fmaj7] you
( Flute Instrumental: )
[FMaj7] [Am]  
 
 e|---------------||-------------|---------------|-------------|-------------8-|
 B|-----8-10-8----||-10----------|-------10-8----|-10----------|-------10-11---|
 G|---10-------10-||-------------|------------10-|-------------|---------------|
 D|---------------||-------------|---------------|-------------|---------------|
 A|---------------||-------------|---------------|-------------|---------------|
 E|---------------||-------------|---------------|-------------|---------------|

/ . . / . . /
[Bb] [EbMaj9] [AbMaj7]  
 
 e|-10----------|---------8----|-------------|----------10-|-8---------|-----11-8----|
 B|-------------|-----------11-|-8-----------|--------8----|-----------|----------9--|
 G|-------------|--------------|-------------|-------------|-----------|-------------|
 D|-------------|--------------|-------------|-------------|-----------|-------------|
 A|-------------|--------------|-------------|-------------|-----------|-------------|
 E|-------------|--------------|-------------|-------------|-----------|-------------|

[GbMaj7] [D9] [D7] [GMaj7]  
 
 e|-----------|--------------|-----------|---------------|-------------|--------------|
 B|-11--------|------11-9----|-10--------|-10-----7-8-10-|-12----------|---10-8-7-----|
 G|-----------|-----------11-|-----------|----7-9--------|-------------|----------9-7-|
 D|-----------|--------------|-----------|---------------|-------------|--------------|
 A|-----------|--------------|-----------|---------------|-------------|--------------|
 E|-----------|--------------|-----------|---------------|-------------|--------------|

[Eb9] [Eb7] [Eb9] [C7] [C7sus4] [C7]  
 
 e|-----------|---------------|----------------|----------------|
 B|-----------|--------8-9-11-|-13-------------|----------------|
 G|-8---------|---8-10--------|--------12------|----------------|
 D|-----------|---------------|----------------|----------------|
 A|-----------|---------------|----------------|----------------|
 E|-----------|---------------|----------------|----------------|

[C7] [FMaj7] [Bb] [C7]  
 
 e|-12-10----15-13-12-|-12-10---------------|-------------|---------------|
 B|-------13----------|-------13-11-10------|-------------|---------------|
 G|-------------------|----------------12p9-|-10----------|-10-----12-----|
 D|-------------------|---------------------|-------------|---------------|
 A|-------------------|---------------------|-------------|---------------|
 E|-------------------|---------------------|-------------|---------------|

ret.
[FMaj7]  
 
 e|---------------|-------------------|-------------||
 B|-10--11--10h11-|-10h11-10h11-10h11-|-10----------||
 G|---------------|-------------------|-------------||
 D|---------------|-------------------|-------------||
 A|---------------|-------------------|-------------||
 E|---------------|-------------------|-------------||

tr.

Important: The song above is NOT stored on the Chordie server. The original song is hosted at www.azchords.com. Chordie works as a search engine and provides on-the-fly formatting. Chordie does not index songs against artists'/composers' will. To remove this song please click here.

Text color:
Chord color:
Chord grids: 
Font size:    
Page size: 

Abmaj7 Abmaj7 Am Bb C7 C7sus4 D7 D9 Eb7 Eb9 Ebmaj9 Ebmaj9 Fmaj7 Fmaj7 Gmaj7 Gbmaj7 Gbmaj7 Gmaj7
Rate #1 of 3 versions

Login - add to songbook

SHARE PAGE  



You need to log in to post comments