Guitar Tabs, Chords and Lyrics
Login is temporarily disabled for some users. Do not panic. Will be back in an hour or two. DO NOT REREGISTER!!


Feelin' Stronger Every Day  Chicago

Hi I'm only 13 but I've been listening to Chicago ever since I was like 2 and my first concert was at 4 but anywayz with some help I figured out this song.....its one of my favourites.
[Dm] [F] [G]  
[G] [C] [F]  
[Dm] [F] [G]  
[G] [C] [F]  
C riff (mute all "x" strings as noted)
 
 e x------------------------------------x--x--x-I
 B --17--15--13--11--10--8--6--5--3--1--x--x--5-I
 G x------------------------------------3--2--5-I
 D --17--15--14--12--10--8--7--5--3--2--x--x--5-I
 A x------------------------------------5--3--3-I
 E x------------------------------------x--x--x-I

C(barre)
C(barre)
I do believe...
[Eb]And I know...[Bb]believe...
Eb Bb F(barre)
Oh yeah (x2)
C(barre)
And now we...
[Eb]Love's not...[Bb]supposed to...
Eb Bb F(barre)
Oh yeah (x2)
[Am]And knowing...[Dm]wanted it...
[Am]I do believe...[Dm]stronger [F]every [G]day
C(barre)
I know we...
[Eb]Together we...[Bb]love inside
Eb Bb F(barre)
Oh yeah (x2)
C(barre)
So now...
[Eb]Both of...[Bb]live on...
Eb Bb F(barre)
Oh yeah (x2)
[Am]And knowing...[Dm]wanted it...
[Am]I do believe...[Dm]stronger [F]every [G]day
[G]Yeah, [C]yeah, [F]yeah
[Dm] [F] [G]  
[G]Yeah, [C]yeah, [F]yeah
C riff #2
 
 e x------------------------------------x--x--3--I
 B --17--15--13--11--10--8--6--5--3--1--3--5--3--I
 G x------------------------------------3--5--4--I
 D --17--15--14--12--10--8--7--5--3--2--3--5--5--I
 A x------------------------------------1--3--5--I
 E x------------------------------------x--x--3--I

Bb C G(barre)
Bb C(barre) D-D
Bb C(barre) G(barre)
Bb C(barre) A
[A]After what...[E]meant...
Ooh [B]baby, now
[F#]I can...[C#]easily
[C#]Yeah, [B]yeah, [A]yeah
[A]I know...[E]both...
...happened to [B]you
The [F#]best...[C#]me
[C#]Yeah, [B]yeah, [A]yeah[E] [B]
[A]Feelin' [E]stronger every [B]day (you know I'm alright now)

Important: The song above is NOT stored on the Chordie server. The original song is hosted at www.azchords.com. Chordie works as a search engine and provides on-the-fly formatting. Chordie does not index songs against artists'/composers' will. To remove this song please click here.

Text color:
Chord color:
Chord grids: 
Font size:    
Page size: 

A Am B Bb C C# Dm E Eb F F# G
Rate #1 of 4 versions

Login - add to songbook

SHARE PAGE  



You need to log in to post comments