Guitar Tabs, Chords and Lyrics
Login is temporarily disabled for some users. Do not panic. Will be back in an hour or two. DO NOT REREGISTER!!


Just You 'n' Me  Chicago

Just You 'N' Me
Chicago
[1973]Written by James Pankow
[Bb] [F] [Cm7]  
 
 E----------------------(8)---------------------
 B----------3---(6)------------11---10---(11)---
 G------3---------------------------------------
 D--3-------------------------------------------
 A----------------------------------------------
 E----------------------------------------------

[Eb] [F]  
 
 E----------------------------------------------
 B--8-------------------------------------------
 G------8-------------------------------10------
 D----------10----8----10----7----10------------
 A----------------------------------------------
 E----------------------------------------------

[Bb]You are my [Cm7]love and my life
Y[F]ou are my [Eb]ins[Gm]pir[Eb]ati[Bb]on
J[Eb]ust you 'n' [F6]me s[Eb]imple and fr[F6]ee
[Cm7]Baby you're [Eb]everything I've ever dre[F]amed of
 
 E-----------------------------------------------
 B--8--6-----------------------------------------
 G--------8--7-----------------------------------
 D--------------10--8----------------------------
 A-----------------------------------------------
 E-----------------------------------------------

G[Bb]ive me your [Cm7]own special smile
[F]Promise you'll [Ab]nev[Gm]er l[Eb]eave [Bb]me
J[Eb]ust you 'n' [F6]me s[Eb]imple and fr[F6]ee
[Cm7]Life is so [Eb]easy when you're bes[Ab]ide me [F]oh girl
C[Db]ome hold me close never rel[Ab]ease me
(Oh baby don't release me)
[Db]Open your arms let my love [F]in
(Let me in let me in let me in)
L[Db]ove me tonight love me fo[Ab]rever and [Bbm]ever[Eb]
(You know I can't forget you)
[Bbm]  
 
 E-----------------------------------------------
 B--11------9--11--------------(9)---------------
 G------10----------------(10)-----10------------
 D-----------------11--13--------------13--11----
 A-----------------------------------------------
 E-----------------------------------------------

[Gb] [Bbm]  
 
 E-----------------------------------------------
 B------------14---13--11----11--9------9--11----
 G----------------------------------10-----------
 D--(13)--11-------------------------------------
 A-----------------------------------------------
 E-----------------------------------------------

[Cb] [F] [Bbm] 
 
 E-----------------------------------------------
 B--9--11-----------------------------(10)--11-9-
 G------------------------------(11)-------------
 D----------11--13--14--13--11-------------------
 A-----------------------------------------------
 E-----------------------------------------------

[Eb] 
 
 E-----------------------------------------------
 B-----------------------------------------------
 G--10-9-----------------------------------------
 D-------13-11----11-13--11-13------11--13--11---
 A-------------13---------------13---------------
 E-----------------------------------------------

[Bbm] [A] 
 
 E-----------------------------------------------
 B---11--9---------------------------------------
 G----------10--9--------------------------------
 D------------------13--11----------(11)---------
 A----------------------------13-----------------
 E-----------------------------------------------
 E--------------------------------10-------------
 B--------------------------------10-------------
 G--------------------------------12--12---------
 D-------10--12--15-------10--12------15---------
 A--(5)--10--12--15--(5)--10--12------15---------
 E-----------------------------------------------
 E--------------------------------10-------------
 B--------------------------------10-------------
 G--------------------------------12--12---------
 D-------10--12--15-------10--12------15---------
 A--(5)--10--12--15--(5)--10--12------15---------
 E-----------------------------------------------
 E--------------------------------10-------------
 B--------------------------------10-------------
 G--------------------------------12--12---------
 D-------10--12--15-------10--12------15---------
 A--(5)--10--12--15--(5)--10--12------15---------
 E-----------------------------------------------
 E--------------------------------10-------------
 B--------------------------------10-------------
 G--------------------------------12--12---------
 D-------10--12--15-------10--12------15---------
 A--(5)--10--12--15--(5)--10--12------15---------
 E-----------------------------------------------

[Eb]  
 
 E-----------------------------------------------
 B-----------------------------------------------
 G---8----8----8----8----8----8----8----8--------
 D--11---11---11---11---11---11---11---11--------
 A-----------------------------------------------
 E-----------------------------------------------

J[Bb]ust you'n'[Ab]me to c[Eb]arry on
S[Bb]imple and f[Ab]ree my [Eb]lovel[F]y
T[Bb]wo flow as [Ab]one as l[Eb]ove's reward
L[Bb]oving you g[Ab]irl is [Eb]so d[F]amn [Eb]eas[F]y yeah yeah
Y[Bb]ou are my l[Cm7]ove and my life
Y[F]ou are my [Ab]ins[Gm]pir[Eb]ati[Bb]on
J[Eb]ust you'n'[F6]me s[Eb]imple and f[F6]ree
[Cm7]Baby you're [Eb]everythng I've ever dr[F]eamed of yeah yeah
[Eb] [B] [Bb] [Eb] [E] 
 
 E-----------------------------------------------
 B--11-----------------------11----------(12)----
 G------12--10-----10------------12--10----------
 D--------------13-----(12)----------------------
 A-----------------------------------------------
 E-----------------------------------------------


Important: The song above is NOT stored on the Chordie server. The original song is hosted at www.azchords.com. Chordie works as a search engine and provides on-the-fly formatting. Chordie does not index songs against artists'/composers' will. To remove this song please click here.

Text color:
Chord color:
Chord grids: 
Font size:    
Page size: 

A Ab B Bb Bbm Cb Cm7 Db E Eb F F6 Gb Gm
Rate #1 of 1 versions

Login - add to songbook

SHARE PAGE  




You need to log in to post comments