Guitar Tabs, Chords and Lyrics
Update 25:10. 13:00. Site is back up running again. Songbooks are recovered. Woring on getting search back up..


Saber Voar  Chimarruts

Tom: E
(intro) ( E B C#m7 A B )
Introdução na Flauta
 
 E |--------------------/7---7-5--------------------------------|
 B |-----9/7-5-7--5~7-5----9----~7~5-/9-5----9/7-5-7--5-7-/9-5--|
 G |------------------------------------------------------------|
 D |------------------------------------------------------------|
 A |------------------------------------------------------------|
 E |------------------------------------------------------------|

Introdução no violão(junto com a Flauta)
[E] [C#m7] [A] [B]  
 
 E |----------------7------------------|
 B |-----9/7-5-7~-5---~5------2--4-----|
 G |--1----------------4---4--2--4-----|
 D |--2----------------6-6----2--4-----|
 A |--2----------------4------0--2-----|
 E |--0--------------------------------|

(Bend na guitarra)
 
 E |----------------------------|
 B |----12b14b12b14-------------|
 G |----------------------------|

(verso)
[E]Fala[B]r que b[C#m7]om quando é pra [A]ti[B]
[E]Sonh[B]ar faz a v[C#m7]ida mais fel[A]iz[B]
[E]E as estr[B]elas que n[C#m7]ão posso toc[A]ar[B]
[E]Estão tão[B] perto e[C#m7]stão no teu [A]ol[B]har
[E]cant[B]ar que [C#m7]bom quando é pra[A] t[B]i
[E]Ver teu sorr[B]iso tamb[C#m7]ém me faz sor[A]ri[B]r
[E]? est[B]rela não [C#m7]deixe de bril[A]ha[B]r
[E]Mesmo que tão [B]longe sei que[C#m7] ela está[A] l[B]á
(ponte)
[C#m7]E mesmo que eu n[G#m7]ão te veja
P[F#m7]osso sentir quando p[A]ensa [B]em mim
[C#m7]? como não ver[G#m7] o sol
M[F#m7]as ter certeza que e[A]stá [B]
Tr[C#m7]ansformando a n[G#m7]oite em dia
[C#m7]Tristezas em al[G#m7]egria
E aqu[F#m7]ilo que era vazio
Foi emb[A]ora pra não voltar m[B]ais
(refrão)
[E] Queria s[B]aber vo[C#m7]ar
Pra lá do[A] alto poder [B]ver você
[E] Te ver sorr[B]ir te ver sonh[C#m7]ar
Coisas l[A]indas quero t[B]e dizer
[E] E se um [B]anjo encontra[C#m7]r
Eu vou p[A]edir pra ele t[B]e proteger
[E] ? est[B]rela que me faz enxer[C#m7]gar
Que a v[A]ida é linda [B]de viver
(solo)
Flauta
 
 E |-------------------------7--------------------|
 B |----------9/7----9-999-9--------------9/7-----|
 G |--9-999-9-----9---------------9-999-9-----9---|
 D |----------------------------------------------|
 A |----------------------------------------------|
 E |----------------------------------------------|

Uma guitarra faz isso no começo do solo um pouco depois da Flauta
 
 E |----------------|
 B |--12/14--12*-12-|
 G |----------------|
 D |----------------|
 A |----------------|
 E |----------------|

*Outra Guitarra entra solando por traz
 
 E |--------------------------------------------------------------------9---|
 B |--/12-9-------------------------------------------------------------x---|
 G |--------11-9-------11-11b-11b-9------9-11-11b-11-9-----------11-9---x---|
 D |-------------9/11-----------------11---------------11p9-9/11--------x---|
 A |------------------------------------------------------------------------|
 E |------------------------------------------------------------------------|

(ponte)
(refrão)
Flauta
 
 E |--------------------/7---7-5---------------------------------|
 B |-----9/7-5-7--5~7-5----9----~7~5-/9-5----9/7-5-7--5-7-/9-5---|
 G |-----------------------------------------------------------4-|
 D |-------------------------------------------------------------|
 A |-------------------------------------------------------------|
 E |-------------------------------------------------------------|

Guitarra
 
 E |--------------------/7---------------------------------------|
 B |-----9/7-5-7--5~7-5----/9----------------9/7-5-7--5-7-/9-5---|
 G |-----------------------------------------------------------4-|
 D |-------------------------------------------------------------|
 A |-------------------------------------------------------------|
 E |-------------------------------------------------------------|
 E |-------------------------|
 B |----12b14b12-------------|
 G |-------------------------| 


Important: The song above is NOT stored on the Chordie server. The original song is hosted at www.azchords.com. Chordie works as a search engine and provides on-the-fly formatting. Chordie does not index songs against artists'/composers' will. To remove this song please click here.

Text color:
Chord color:
Chord grids: 
Font size:    
Page size: 

A B C#m7 E F#m7 G#m7
Rate #1 of 1 versions

Jango Player

Login - add to songbook

SHARE PAGE  



You need to log in to post comments