Guitar Tabs, Chords and Lyrics
Server problems seems to be fixed. Chordie has been experiencing problems with songs disappearing. These issues now seems to be fixed, but still verifying the fix. If you find anything strange, please email admin@chordie.com.


Versos Simples  Chimarruts

Tom: G
(intro)
[G] [C] [D]  
 
 E|--------------------3-3------------------0-0------|
 B|-6/5-3--------------0--0---0h1p0-------3---3------|
 G|--------2h4p2-0-----0-------------0--0-----2------|
 D|-------------------------------------------0------|
 A|-----------------------------------3--------------|
 E|------------------3------3------------------------|

[G] [C] [D]  
 
 E|----------3-3------------------0-0-----------------|
 B|----------0--0---0h1p0-------3---3------3----------|
 G|------0---0-------------0--0-----2--2h4---4p2p0----|
 D|--0h2----------------------------0-----------------|
 A|-------------------------3-------------------------|
 E|--------3------3--------------------------------3--|

[G]Sabe já faz [C9]tempo,
Que eu quer[D9]ia te falar
[G]Das coisas que trag[C9]o no p[D9]eito
[G]Saudade,
Já não[C9] sei se é a palavr[D9]a certa para[G] usar
Ainda lembro d[C9]o seu j[D9]eito
(refrão)
[Bm7]Não te trago ouro,[Am7]
[D7/9]Porque ele não entra no c[Bm7]éu
E nenhuma riqueza deste m[C9]undo[D7/F#]
[Bm7]Não te trago[Am7] flores
[D7/9]Porque elas secam e caem ao ch[Bm7]ão
Te trago meus versos, s[C9]imples
Mas que f[D7/F#]iz de coraçã[G]o
[(] [G] [C9] [D9] [)]  
(volta no inicio)
[D9]fiz de cora[G]ão

Important: The song above is NOT stored on the Chordie server. The original song is hosted at www.azchords.com. Chordie works as a search engine and provides on-the-fly formatting. Chordie does not index songs against artists'/composers' will. To remove this song please click here.

Text color:
Chord color:
Chord grids: 
Font size:    
Page size: 

Am7 Bm7 C C9 D D7/9 D7/F# D9 G
Rate #1 of 2 versions

Jango Player

Login - add to songbook

SHARE PAGE  




You need to log in to post comments