Guitar Tabs, Chords and Lyrics
Update 25:10. 13:00. Site is back up running again. Songbooks are recovered. Woring on getting search back up..


Disappearing One  Chris Cornell

 
 -------------------------------------------------------------------------------
 -------------------------------------------------------------------------------

Tuning: EADGBe
capo 4. fret
Intro: E |E/G# |Am |Em/G |F# |F |
[E]What have you [E/G#]done, [Am]my little s[Em/G]park?
[F#]Cursing my n[F]ame ??cause [E]again I[D] put yo[Am]u out
[E]Falling a[E/G#]part, you t[Am]ell yourself you [Em/G]are
Dreaming o[F#]nly of the o[F]nes who ne[E]ver dr[D]eam of
Am Am/G F#ø B7
you.. never dream of
Am Am/G F#ø B7/F#
you
[C]I??m y[G/B]our disa[Am]ppearin[E/G#]g one
[C]Vani[G/B]sh when the c[Am]urtain??s[E/G#] drawn
But [F]I will come a[D/F#]gain, and [E/G#]you will let me [Am]in[C/G]
F Fm/C Bb C (E when chorus is repeated...)
And you??ll see I never disappear for long
Chords:
E E/G# Am Em/G F# F D Am/G F#ø B7 C G/B D/F#
 
 e|0-----0-----0-----0-----2-----1-----2-----0-----0-----2-----0-----3-----2--|
 B|0-----0-----1-----0-----2-----1-----3-----1-----1-----4-----1-----3-----3--|
 G|1-----4-----2-----0-----3-----2-----2-----2-----2-----2-----0-----0-----2--|
 D|2-----2-----2-----2-----4-----3-----0-----2-----2-----4-----2-----0-----4--|
 A|2-----2-----0-----2-----4-----3-----------x-----x-----2-----3-----2-----5--|
 E|0-----4-----------3-----2-----1-----------3-----2-----------------------2--|

[C/G] [Fm/C] [Bb]  
 
 e|0-----1-----1--------------------------------------------------------------|
 B|1-----1-----3--------------------------------------------------------------|
 G|0-----1-----3--------------------------------------------------------------|
 D|2-----3-----3--------------------------------------------------------------|
 A|3-----3-----1--------------------------------------------------------------|
 E|3--------------------------------------------------------------------------|

| / slide up
| \ slide down
| B hammer-on
| p pull-off
| ~ vibrato
| + harmonic
| x Mute note
===============================================================================

Important: The song above is NOT stored on the Chordie server. The original song is hosted at www.azchords.com. Chordie works as a search engine and provides on-the-fly formatting. Chordie does not index songs against artists'/composers' will. To remove this song please click here.

Text color:
Chord color:
Chord grids: 
Font size:    
Page size: 

Am Bb C C/G D D/F# E E/G# F F# Fm/C G/B
Rate #1 of 3 versions

Login - add to songbook

SHARE PAGE  



You need to log in to post comments