Guitar Tabs, Chords and Lyrics
Login is temporarily disabled for some users. Do not panic. Will be back in an hour or two. DO NOT REREGISTER!!


Reverie  Chris Isaak

Tuning: Standard E (EADGBe)
INTRO:
Guitar 1: Em D Am Em x2
Guitar 2:
 
 e|------------------------------------------------------------------------|
 B|--12--------10-----10----------------12---------10-----7--10------------|
 G|-----9--12------7-------------12~--------9--12------7----------------9--|
 D|-----------------------10--9----------------------------------10--9-----|
 A|------------------------------------------------------------------------|
 E|------------------------------------------------------------------------|

CHORUS 1:
Wh[Em]ere do you [D]go when it's over[Am]
When the reverie goes [Em]up in flames
T[Em]here's no such [D]thing as tomorrow[Am]
When you love me then l[Em]eave me this way
VERSE 1:
[Em] I know that it's [D]over till you n[Am]eed me ag[Em]ain
[Em] Your eyes av[D]oid me, it's a g[Am]ame that I can't [Em]win
[F] Wish I could be like y[Em]ou
[F] And have a heart that c[B]an't be broken
CHORUS 2:
Wh[Em]ere do you [D]go when it's over[Am]
When the reverie goes [Em]up in flames
T[Em]here's no such [D]thing as tomorrow[Am]
When you love me then l[Em]eave me this way
INSTRUMENTAL:
Guitar 1: Em D Am Em
Guitar 2:
 
 e|------------------------------------|
 B|-12---------10-----7--10------------|
 G|-----9--12------7----------------9--|
 D|--------------------------10--9-----|
 A|------------------------------------|
 E|------------------------------------|

Verse 2:
[Em] You say you l[D]ove me
But you n[Am]ever say my n[Em]ame
[Em] Is someone [D]else
Do you tr[Am]eat him just the s[Em]ame
[F] Oh you hide it w[Em]ell
[F] I wish I knew just wh[B]at you're thinking
CHORUS 3:
Wh[Em]ere do you [D]go when it's over[Am]
When the reverie goes [Em]up in flames
T[Em]here's no such [D]thing as tomorrow[Am]
When you love me then l[Em]eave me this way
SOLO:
Guitar 1: Em D Am Em x2
Guitar 2:
 
 e|--------------------------------------|
 B|-----12~-----10b12------10--8--8--5~--|
 G|--9-------7---------------------------|
 D|--------------------10----------------| x2
 A|--------------------------------------|
 E|--------------------------------------|

[F] Wish you could see your f[Em]ace
[F] You go someplace no [B]one can touch you
CHORUS 4:
Wh[Em]ere do you [D]go when it's over[Am]
When the reverie goes [Em]up in flames
T[Em]here's no such [D]thing as tomorrow[Am]
When you love me then l[Em]eave me this way
CHORUS 5:
Wh[Em]ere do you [D]go when it's over[Am]
When the reverie goes [Em]up in flames
T[Em]here's no such [D]thing as tomorrow[Am]
When you love me then l[Em]eave me this way
[Em] [D] [Am] [Em] 
When you love me then leave me this way
[Em] [D] [Am] [Em] 
OUTRO:
Guitar 1: Em D Am Em x2
Guitar 2:
 
 e|------------------------------------------------------------------------|
 B|--12--------10-----10----------------12---------10-----7--10------------|
 G|-----9--12------7-------------12~--------9--12------7----------------9--|
 D|-----------------------10--9----------------------------------10--9-----|
 A|------------------------------------------------------------------------|
 E|------------------------------------------------------------------------| 


Important: The song above is NOT stored on the Chordie server. The original song is hosted at www.azchords.com. Chordie works as a search engine and provides on-the-fly formatting. Chordie does not index songs against artists'/composers' will. To remove this song please click here.

Text color:
Chord color:
Chord grids: 
Font size:    
Page size: 

Am B D Em F
Rate #1 of 1 versions

Jango Player

Login - add to songbook

SHARE PAGE  



You need to log in to post comments