Guitar Tabs, Chords and Lyrics
Server problems seems to be fixed. Chordie has been experiencing problems with songs disappearing. These issues now seems to be fixed, but still verifying the fix. If you find anything strange, please email admin@chordie.com.


Awake My Soul  Chris Tomlin

Key: G Major (or Em) (No Capo)
I usually do Chords, but I wanted to try something different, so this will be my first Tab.
I've looked at a variety of ways to play it, and I think this one seems to suit me best,
but of course, feel free to leave any comments below on any improvements or suggestions
that can be made or thumbs up!
NOTE* Many and Most of the "melodic lines are "piano parts" tabbed for guitar.
Chords Used
Em7 C G D D/F#* C/E G/D
 
 e|----0----0----3----2----2----0----2----|
 B|----3----1----0----3----3----1----0----| *D/F# the "2" on the E string is
 G|----0----0----0----2----2----0----0----| played using your thumb. Reach over
 D|----2----2----0----0----0----2----0----| with your thumb to also mute the
 A|----2----3----2----x----x----3----x----| A string.
 E|----0----x----3----x----2----0----x----|

For the Burning Lights intro, it fades in very quietly and it's very hard to pick up what
chords are being played, but it sounds like they open with a "G-chord" and sustain it for
about three measures before the guitar part comes in.
Burning Lights Intro (After 3 measures of "G-chord" fade in):
Rhythm Electric:
(10 Seconds)
[Em7]1 & 2 & 3 & 4 & [C]1 & 2 & 3 & 4 & [G]1 & 2 & 3 & 4 &
 
 e|---------5-----------5----|-------5-----------5----|-------5-----------5----|
 B|---8-----------8----------|-8-----------8----------|-8-----------8----------|
 G|------7-----------7-------|----7-----------7-------|----7-----------7-------|
 D|--------------------------|------------------------|------------------------|
 A|--------------------------|------------------------|------------------------|
 E|--------------------------|------------------------|------------------------|

[G]1 & 2 & 3 & 4 &
 
 e|---5-----7-----5-----7----|
 B|--------------------------|
 G|--------------------------|
 D|--------------------------|
 A|--------------------------|
 E|--------------------------|

(18 seconds)
Your Word... Bones... Your Breath... On...
[Em7]1 & 2 & 3 & 4 & [C]1 & 2 & 3 & 4 & [G]1 & 2 & 3 & 4 &
 
 e|---------5-----------5------|-------5-----------5-------|-------5-----------5----|
 B|---8-----------8------------|-8-----------8-------------|-8-----------8----------|
 G|------7-----------7---------|----7-----------7----------|----7-----------7-------|
 D|----------------------------|---------------------------|------------------------|
 A|----------------------------|---------------------------|------------------------|
 E|----------------------------|---------------------------|------------------------|

[G]1 & 2 & 3 & 4 &
 
 e|---5-----7-----5-----7----|
 B|--------------------------|
 G|--------------------------|
 D|--------------------------|
 A|--------------------------|
 E|--------------------------|

(27 seconds)
Your Word... Bones... Your Breath... On...
[Em7]1 & 2 & 3 & 4 & [C]1 & 2 & 3 & 4 & [G]1 & 2 & 3 & 4 &
 
 e|---------5-----------5-------|-------5-----------5-------|-------5-----------5----|
 B|---8-----------8-------------|-8-----------8-------------|-8-----------8----------|
 G|------7-----------7----------|----7-----------7----------|----7-----------7-------|
 D|-----------------------------|---------------------------|------------------------|
 A|-----------------------------|---------------------------|------------------------|
 E|-----------------------------|---------------------------|------------------------|

[G]1 & 2 & 3 & 4 &
 
 e|---5-----7-----5----------|
 B|---------------------8----| (Let the last note ring out on the last time going
 G|--------------------------| x3 into "Awake My Soul" Intro) *Of the 3 times you play
 D|--------------------------| this part, guitar 2 will come on the pick-up of the
 A|--------------------------| start of the 2nd time @ 35 seconds)
 E|--------------------------|

Lead Electric:
(35 seconds)
[G]1 & 2 & 3 & 4 & [Em7]1 & 2 & 3 & 4 & [C]1 & 2 & 3 & 4 &
 
 e|--------------------------|------------------------|------------------------|
 B|---------------------8/---|-15-15-15-15-15-15-15~~\|-8--8--8--8--8--8--8~~/-|
 G|--------------------------|------------------------|------------------------|
 D|--------------------------|------------------------|------------------------|
 A|--------------------------|------------------------|------------------------|
 E|--------------------------|------------------------|------------------------|

[G]1 & 2 & 3 & 4 & [D]1 & 2 & 3 & 4 & [Em7]1 & 2 & 3 & 4 &
 
 e|--------------------------|------------------------|------------------------|
 B|---15-15-15-15-15-15-15~~\|-10-10-10-10-10-10-8~~/-|-15-15-15-15-15-15-15~~\|
 G|--------------------------|------------------------|------------------------|
 D|--------------------------|------------------------|------------------------|
 A|--------------------------|------------------------|------------------------|
 E|--------------------------|------------------------|------------------------|

[C]1 & 2 & 3 & 4 & [G]1 & 2 & 3 & 4 & [D]1 & 2 & 3 & 4 &
 
 e|--------------------------|------------------------|------------------------|
 B|---8--8--8--8--8--8--8~~/-|-15-15-15-15-15-15-15~~\|-10-10-10-10-10-10-10~~~|
 G|--------------------------|------------------------|------------------------|
 D|--------------------------|------------------------|------------------------|
 A|--------------------------|------------------------|------------------------|
 E|--------------------------|------------------------|------------------------|

"Awake My Soul" Intro Tab (Piano Part)
(0 seconds) (Alternate picking for "higher register" at end of tab)
[Em7]1 2 & 3 4 & [C]1 2 & 3 4 & [G]1 2 & 3 4 &
 
 e|------------------------|----------------------|----------------------|
 B|---0----------0---------|-0--------------------|-0----------0---------|
 G|--------0----------0----|------0-----5----0----|------0----------0----|
 D|-----------7----------7-|---------7----------7-|---------7----------7-|
 A|------------------------|----------------------|----------------------|
 E|------------------------|----------------------|----------------------|

(9 seconds)
[G]1 2 & 3 4 & [Em7]1 2 & 3 4 & [C]1 2 & 3 4 &
 
 e|------------------------|----------------------|----------------------|
 B|---0-------0------------|-0----------0---------|-0--------------------|
 G|--------0----------0----|------0----------0----|------0-----5----0----|
 D|--------------7-------7-|---------7----------7-|---------7----------7-|
 A|------------------------|----------------------|----------------------|
 E|------------------------|----------------------|----------------------|

[G]1 2 & 3 4 & [G]1 2 & 3 4 &
 
 e|------------------------|----------------------]
 B|---0----------0---------|-0-------0------------]
 G|--------0----------0----|------0---------------]
 D|-----------7----------7-|------------7---------]
 A|------------------------|----------------------]
 E|------------------------|----------------------]

Verse 1:
(16 seconds)
[G] Breathe on [Em7]me, Breath of [C]God, Breathe on [G]me.
[G] Breathe on [Em7]me, Breath of [C]God, Breathe on [G]me[G]
Lead Electric: (If you have a good ear, you'll hear more than two notes played at a time.
You can either use a delay pedal, or you can add a "pick-up note" on the &
of 1 and 3, which I denoted at the 44 second mark).
(35 seconds)
I come alive, I'm alive when You Breathe on me.
[Em7]1 & 2 & 3 & 4 & [C]1 & 2 & 3 & 4 & [G]1 & 2 & 3 & 4 &
 
 e|---7--7~~~~----7--7~~~~---|-3--3~~~~--------3--3~~~~---|-7--7~~~~----7--7~~~~---|
 B|--------------------------|----------------------------|------------------------|
 G|--------------------------|----------------------------|------------------------|
 D|--------------------------|----------------------------|------------------------|
 A|--------------------------|----------------------------|------------------------|
 E|--------------------------|----------------------------|------------------------|

(44 seconds)--> I come alive, I'm alive when You Breathe on
[D]1 & 2 & 3 & 4 & [Em7]1 & 2 & 3 & 4 & [C]1 & 2 & 3 & 4 &
 
 e|---5--5~~~~----5--5~~~~-5-|-7--7-----7--7--7-----7-|-3--3---------3--3--3-----3-|
 B|--------------------------|------------------------|----------------------------|
 G|--------------------------|------------------------|----------------------------|
 D|--------------------------|------------------------|----------------------------|
 A|--------------------------|------------------------|----------------------------|
 E|--------------------------|------------------------|----------------------------|

me.
[G]1 & 2 & 3 & 4 & [G]1 & 2 & 3 & 4 &
 
 e|---7--7-----7--7--7-----7-|-3--3-----3--5-----3----|
 B|--------------------------|------------------------|
 G|--------------------------|------------------------|
 D|--------------------------|------------------------|
 A|--------------------------|------------------------|
 E|--------------------------|------------------------|

Chorus:
| Lead Electric |
| |
|Rhythm Electric|
(53 seconds)
Awake, Awake, Awake my soul; God Res - sur -
[Em7]1 & 2 & 3 & 4 & [C]1 & 2 & 3 & 4 & [G]1 & 2 & 3 & 4 &
 
 e|--10-10-10-10-10-10-10-10--|-3--3--3--3--3--3--3--3-|-10-10-10-10-10-10-10-10-|
 B|--8--8--8--8--8--8--8--8---|-3--3--3--3--3--3--3--3-|-8--8--8--8--8--8--8--8--|
 G|---------------------------|------------------------|-------------------------|
 D|---------------------------|------------------------|-------------------------|
 A|---------------------------|------------------------|-------------------------|
 E|---------------------------|------------------------|-------------------------|

| | | |
| | | |
| 1 e & a 2 & 3 & 4 & | 1 e & a 2 & 3 & 4 &| 1 e & a 2 & 3 & 4 &|
 
 e|--7-------7--8--7----------|-8-------8--10-8--7-----|-7-------7--8--7---------|
 B|--------8----------10-8----|-------8-------------10-|-------8----------10-8---|
 G|---------------------------|------------------------|-------------------------|
 D|---------------------------|------------------------|-------------------------|
 A|---------------------------|------------------------|-------------------------|
 E|---------------------------|------------------------|-------------------------|

- ect these bones. From Death to life; for You a - lone.
[D]1 & 2 & 3 & 4 & [Em7]1 & 2 & 3 & 4 & [C]1 & 2 & 3 & 4 &
 
 e|---5--5--5--5--5--5--5--5-|--10-10-10-10-10-10-10-10-|-3--3--3--3--3--3--3--3--|
 B|---3--3--3--3--3--3--3--3-|--8--8--8--8--8--8--8--8--|-3--3--3--3--3--3--3--3--|
 G|--------------------------|--------------------------|-------------------------|
 D|--------------------------|--------------------------|-------------------------|
 A|--------------------------|--------------------------|-------------------------|
 E|--------------------------|--------------------------|-------------------------|

| | | |
| | | |
| 1 e & a 2 & 3 & 4 &| 1 e & a 2 & 3 & 4 & | 1 e & a 2 & 3 & 4 &|
 
 e|--5-------5--7--5---------|-7-------7--8--7----------|-8-------8--10-8--7------|
 B|--------7----------8--7---|-------8----------10-8----|-------8-------------10--|
 G|--------------------------|--------------------------|-------------------------|
 D|--------------------------|--------------------------|-------------------------|
 A|--------------------------|--------------------------|-------------------------|
 E|--------------------------|--------------------------|-------------------------|

a- wake my soul.
[G]1 & 2 & 3 & 4 & [D]1 & 2 & 3 & 4 &
 
 e|---10-10-10-10-10-10-10-10-|-5--5--5--5--5--5--5--5-|
 B|---8--8--8--8--8--8--8--8--|-3--3--3--3--3--3--3--3-|
 G|---------------------------|------------------------|
 D|---------------------------|------------------------|
 A|---------------------------|------------------------|
 E|---------------------------|------------------------|

| | |
| | |
| 1 e & a 2 & 3 & 4 & | 1 e & a 2 & 3 & 4 &|
 
 e|--7-------7--8--7----------|-5-------5--7--5--------|
 B|--------8----------10-8----|-------7----------8--7--|
 G|---------------------------|------------------------|
 D|---------------------------|------------------------|
 A|---------------------------|------------------------|
 E|---------------------------|------------------------|

Instrumental interlude between chorus and Verse 2 (same as Chorus, but only once):
| Lead Electric |
| |
|Rhythm Electric|
(1:11)
[Em7]1 & 2 & 3 & 4 & [C]1 & 2 & 3 & 4 & [G]1 & 2 & 3 & 4 &
 
 e|--10-10-10-10-10-10-10-10--|-3--3--3--3--3--3--3--3-|-10-10-10-10-10-10-10-10-|
 B|--8--8--8--8--8--8--8--8---|-3--3--3--3--3--3--3--3-|-8--8--8--8--8--8--8--8--|
 G|---------------------------|------------------------|-------------------------|
 D|---------------------------|------------------------|-------------------------|
 A|---------------------------|------------------------|-------------------------|
 E|---------------------------|------------------------|-------------------------|

| | | |
| | | |
| 1 e & a 2 & 3 & 4 & | 1 e & a 2 & 3 & 4 &| 1 e & a 2 & 3 & 4 &|
 
 e|--7-------7--8--7----------|-8-------8--10-8--7-----|-7-------7--8--7---------|
 B|--------8----------10-8----|-------8-------------10-|-------8----------10-8---|
 G|---------------------------|------------------------|-------------------------|
 D|---------------------------|------------------------|-------------------------|
 A|---------------------------|------------------------|-------------------------|
 E|---------------------------|------------------------|-------------------------|

[D]1 & 2 & 3 & 4 &
 
 e|-5--5--5--5--5--5--5--5-|
 B|-3--3--3--3--3--3--3--3-|
 G|------------------------|
 D|------------------------|
 A|------------------------|
 E|------------------------|

| |
| |
| 1 e & a 2 & 3 & 4 &|
 
 e|-5-------5--7--5--------|
 B|-------7----------8--7--|
 G|------------------------|
 D|------------------------|
 A|------------------------|
 E|------------------------|

Verse 2:
(1:19)
[G] Speak to [Em7]me, Word of [C]God, Speak to [G]me.
[G] Speak to [Em7]me, Word of [C]God, Speak to [G]me.
(1:38)
I come alive, I'm alive when You speak to me.
[Em7]1 & 2 & 3 & 4 & [C]1 & 2 & 3 & 4 & [G]1 & 2 & 3 & 4 &
 
 e|---7--7~~~~----7--7~~~~---|-3--3~~~~--------3--3~~~~---|-7--7~~~~----7--7~~~~---|
 B|--------------------------|----------------------------|------------------------|
 G|--------------------------|----------------------------|------------------------|
 D|--------------------------|----------------------------|------------------------|
 A|--------------------------|----------------------------|------------------------|
 E|--------------------------|----------------------------|------------------------|

(1:47)--> I come alive, I'm alive when You speak to
[D]1 & 2 & 3 & 4 & [Em7]1 & 2 & 3 & 4 & [C]1 & 2 & 3 & 4 &
 
 e|---5--5~~~~----5--5~~~~-5-|-7--7-----7--7--7-----7-|-3--3---------3--3--3-----3-|
 B|--------------------------|------------------------|----------------------------|
 G|--------------------------|------------------------|----------------------------|
 D|--------------------------|------------------------|----------------------------|
 A|--------------------------|------------------------|----------------------------|
 E|--------------------------|------------------------|----------------------------|

me.
[G]1 & 2 & 3 & 4 & [G]1 & 2 & 3 & 4 &
 
 e|---7--7-----7--7--7-----7-|-3--3-----3--5-----3----|
 B|--------------------------|------------------------|
 G|--------------------------|------------------------|
 D|--------------------------|------------------------|
 A|--------------------------|------------------------|
 E|--------------------------|------------------------|

Back to Chorus: (1:55~2:14)
Em7 - C - G - D x2
Bridge/Scripture (Ezekiel 37:4-9):
(2:14)
Then He said... prophecy to these...Dry bones... ...of the Lord
[Em7]1 & 2 & 3 & 4 & [C]1 & 2 & 3 & 4 & [G]1 & 2 & 3 & 4 &
 
 e|--3--3--3--3--3--3--3--3---|-3--3--3--3--3--3--3--3-|--3--3--3--3--3--3--3--3-|
 B|--3--3--3--3--3--3--3--3---|-3--3--3--3--3--3--3--3-|--3--3--3--3--3--3--3--3-|
 G|---------------------------|------------------------|-------------------------|
 D|---------------------------|------------------------|-------------------------|
 A|---------------------------|------------------------|-------------------------|
 E|---------------------------|------------------------|-------------------------|

| | | |
| | | |
| 1 e & a 2 & 3 & 4 & | 1 e & a 2 & 3 & 4 &| 1 e & a 2 & 3 & 4 &|
 
 e|--7-------7--8--7----------|-8-------8--10-8--7-----|-7-------7--8--7---------|
 B|--------8----------10-8----|-------8-------------10-|-------8----------10-8---|
 G|---------------------------|------------------------|-------------------------|
 D|---------------------------|------------------------|-------------------------|
 A|---------------------------|------------------------|-------------------------|
 E|---------------------------|------------------------|-------------------------|

This is what... ...these bones... ...breath into you... life...
[D]1 & 2 & 3 & 4 & [Em7]1 & 2 & 3 & 4 & [C]1 & 2 & 3 & 4 &
 
 e|---2--2--2--2--2--2--2--2-|--3--3--3--3--3--3--3--3--|-3--3--3--3--3--3--3--3--|
 B|---3--3--3--3--3--3--3--3-|--3--3--3--3--3--3--3--3--|-3--3--3--3--3--3--3--3--|
 G|--------------------------|--------------------------|-------------------------|
 D|--------------------------|--------------------------|-------------------------|
 A|--------------------------|--------------------------|-------------------------|
 E|--------------------------|--------------------------|-------------------------|

| | | |
| | | |
| 1 e & a 2 & 3 & 4 &| 1 e & a 2 & 3 & 4 & | 1 e & a 2 & 3 & 4 &|
 
 e|--5-------5--7--5---------|-7-------7--8--7----------|-8-------8--10-8--7------|
 B|--------7----------8--7---|-------8----------10-8----|-------8-------------10--|
 G|--------------------------|--------------------------|-------------------------|
 D|--------------------------|--------------------------|-------------------------|
 A|--------------------------|--------------------------|-------------------------|
 E|--------------------------|--------------------------|-------------------------|

...commanded... ...as I was...
[G]1 & 2 & 3 & 4 & [D]1 & 2 & 3 & 4 &
 
 e|---3--3--3--3--3--3--3--3--|-2---2---2--2--2--2--2--2-|
 B|---3--3--3--3--3--3--3--3--|-3---3---3--3--3--3--3--3-|
 G|---------------------------|--------------------------|
 D|---------------------------|--------------------------|
 A|---------------------------|--------------------------|
 E|---------------------------|--------------------------|

| | |
| | |
| 1 e & a 2 & 3 & 4 & | 1 e & a 2 & 3 & 4 & |
 
 e|--7-------7--8--7----------|-5-------5--7--5----------|
 B|--------8----------10-8----|-------7----------8--7----|
 G|---------------------------|--------------------------|
 D|---------------------------|--------------------------|
 A|---------------------------|--------------------------|
 E|---------------------------|--------------------------|

(2:32)
A rattling... ...together... ...tendons...
[Em7]1 & 2 & 3 & 4 & [C]1 & 2 & 3 & 4 & [G]1 & 2 & 3 & 4 &
 
 e|--3--3--3--3--3--3--3--3---|-3--3--3--3--3--3--3--3-|--3--3--3--3--3--3--3--3-|
 B|--3--3--3--3--3--3--3--3---|-3--3--3--3--3--3--3--3-|--3--3--3--3--3--3--3--3-|
 G|---------------------------|------------------------|-------------------------|
 D|---------------------------|------------------------|-------------------------|
 A|---------------------------|------------------------|-------------------------|
 E|---------------------------|------------------------|-------------------------|

| | | |
| | | |
| 1 e & a 2 & 3 & 4 & | 1 e & a 2 & 3 & 4 &| 1 e & a 2 & 3 & 4 &|
 
 e|--7-------7--8--7----------|-8-------8--10-8--7-----|-7-------7--8--7---------|
 B|--------8----------10-8----|-------8-------------10-|-------8----------10-8---|
 G|---------------------------|------------------------|-------------------------|
 D|---------------------------|------------------------|-------------------------|
 A|---------------------------|------------------------|-------------------------|
 E|---------------------------|------------------------|-------------------------|

...and skin... ...and then He... ...breath prophecy...
[D]1 & 2 & 3 & 4 & [Em7]1 & 2 & 3 & 4 & [C]1 & 2 & 3 & 4 &
 
 e|---2--2--2--2--2--2--2--2-|--3--3--3--3--3--3--3--3--|-3--3--3--3--3--3--3--3--|
 B|---3--3--3--3--3--3--3--3-|--3--3--3--3--3--3--3--3--|-3--3--3--3--3--3--3--3--|
 G|--------------------------|--------------------------|-------------------------|
 D|--------------------------|--------------------------|-------------------------|
 A|--------------------------|--------------------------|-------------------------|
 E|--------------------------|--------------------------|-------------------------|

| | | |
| | | |
| 1 e & a 2 & 3 & 4 &| 1 e & a 2 & 3 & 4 & | 1 e & a 2 & 3 & 4 &|
 
 e|--5-------5--7--5---------|-7-------7--8--7----------|-8-------8--10-8--7------|
 B|--------7----------8--7---|-------8----------10-8----|-------8-------------10--|
 G|--------------------------|--------------------------|-------------------------|
 D|--------------------------|--------------------------|-------------------------|
 A|--------------------------|--------------------------|-------------------------|
 E|--------------------------|--------------------------|-------------------------|

...Come from... Breathe!
[G]1 & 2 & 3 & 4 & [D]1 & 2 & 3 & 4 &
 
 e|---3--3--3--3--3--3--3--3~~|~~~~--------------------|
 B|---3--3--3--3--3--3--3--3~~|~~~~--------------------|
 G|---------------------------|------------------------|
 D|---------------------------|------------------------|
 A|---------------------------|------------------------|
 E|---------------------------|------------------------|

| | |
| | |
| 1 e & a 2 & 3 & 4 & | 1 & 2 & 3 & 4 & |
 
 e|--7-------7--8--7----------|------------------------|
 B|--------8----------10-8~~~~|~~~~--------------------|
 G|---------------------------|------------------------|
 D|---------------------------|------------------------|
 A|---------------------------|------------------------|
 E|---------------------------|------------------------|

Back two Chorus twice.
(2:50)
(Note* Acoustic Chords are slightly different, but electrics are the same)
A[Em7]wake, Awake, A[C]wake my soul[G], God resur[D]rect these bones.
[Em7] [C] [G] [D] 
(3:07)
A[Em7]wake, Awake, [C]Awake my soul[G], God resur[D/F#]rect these bones.
[Em7] [C/E] [G/D] [D] 
Outro:
| Lead Electric |
| |
|Rhythm Electric|
(3:25)
[G]1 & 2 & 3 & 4 & [Em7]1 & 2 & 3 & 4 & [C/E]1 & 2 & 3 & 4 &
 
 e|---------------------------|------------------------|-------------------------|
 B|---------------------8/----|-15-15-15-15-15-15-15~~\|-8--8--8--8--8--8--8~~/--|
 G|---------------------------|------------------------|-------------------------|
 D|---------------------------|------------------------|-------------------------|
 A|---------------------------|------------------------|-------------------------|
 E|---------------------------|------------------------|-------------------------|

| | | |
| | | |
| 1 e & a 2 & 3 & 4 & | 1 e & a 2 & 3 & 4 &| 1 e & a 2 & 3 & 4 &|
 
 e|---------------------------|-7-------7--8--7--------|-8-------8--10-8--7------|
 B|---------------------------|-------8----------10-8--|-------8-------------10--|
 G|---------------------------|------------------------|-------------------------|
 D|---------------------------|------------------------|-------------------------|
 A|---------------------------|------------------------|-------------------------|
 E|---------------------------|------------------------|-------------------------|

[G/D]1 & 2 & 3 & 4 & [D]1 & 2 & 3 & 4 & [Em7] 1 & 2 & 3 & 4 &
 
 e|--------------------------|-------------------------|-------------------------|
 B|---15-15-15-15-15-15-15~~\|-10-10-10-10-10-10-8~~/--|-15-15-15-15-15-15-15~~~\|
 G|--------------------------|-------------------------|-------------------------|
 D|--------------------------|-------------------------|-------------------------|
 A|--------------------------|-------------------------|-------------------------|
 E|--------------------------|-------------------------|-------------------------|

| | | |
| | | |
| 1 e & a 2 & 3 & 4 &| 1 e & a 2 & 3 & 4 & | 1 e & a 2 & 3 & 4 &|
 
 e|--7-------7--8--7---------|-5-------5--7--5---------|-7-------7--8--7---------|
 B|--------8----------10-8---|-------7----------8--7---|-------8----------10-8---|
 G|--------------------------|-------------------------|-------------------------|
 D|--------------------------|-------------------------|-------------------------|
 A|--------------------------|-------------------------|-------------------------|
 E|--------------------------|-------------------------|-------------------------|

[C/E]1 & 2 & 3 & 4 & [G/D]1 & 2 & 3 & 4 & [D]1 & 2 & 3 & 4 &
 
 e|---------------------------|------------------------|-------------------------|
 B|---8--8--8--8--8--8--8~~/--|-15-15-15-15-15-15-15~~\|-10-10-10-10-10-10-8~~~~~|
 G|---------------------------|------------------------|-------------------------|
 D|---------------------------|------------------------|-------------------------|
 A|---------------------------|------------------------|-------------------------|
 E|---------------------------|------------------------|-------------------------|

| | | |
| | | |
| 1 e & a 2 & 3 & 4 & | 1 e & a 2 & 3 & 4 &| 1 e & a 2 & 3 & 4 &|
 
 e|--8-------8--10-8--7-------|-7-------7--8--7--------|-5-------5--7--5---------|
 B|--------8-------------10---|-------8----------10-8--|-------7----------8--7~~~|
 G|---------------------------|------------------------|-------------------------|
 D|---------------------------|------------------------|-------------------------|
 A|---------------------------|------------------------|-------------------------|
 E|---------------------------|------------------------|-------------------------|

And end on D, letting it ring out!
Hope you enjoyed, leave comments/rate!
***Note*** Alternate way to play Awake My Soul intro in higher register
mentioned earlier in the song...:***
[Em7]1 2 & 3 4 & [C]1 2 & 3 4 & [G]1 2 & 3 4 &
 
 e|------------------------|----------------------|----------------------|
 B|---12------10-12------10|-12------10-13------10|-12------10-12------10|
 G|--------12---------12---|------12---------12---|------12---------12---|
 D|------------------------|----------------------|----------------------|
 A|------------------------|----------------------|----------------------|
 E|------------------------|----------------------|----------------------|

(9 seconds)
[G]1 2 & 3 4 & [Em7]1 2 & 3 4 & [C]1 2 & 3 4 &
 
 e|------------------------|----------------------|----------------------|
 B|---12------12-10------10|-12------10-12------10|-12------10-13------10|
 G|--------12---------12---|------12---------12---|------12---------12---|
 D|------------------------|----------------------|----------------------|
 A|------------------------|----------------------|----------------------|
 E|------------------------|----------------------|----------------------|

[G]1 2 & 3 4 & [G]1 2 & 3 4 &
 
 e|------------------------|----------------------]
 B|---12------10-12------10|-12------12-10--------]
 G|--------12---------12---|------12--------------]
 D|------------------------|----------------------]
 A|------------------------|----------------------]
 E|------------------------|----------------------]


Important: The song above is NOT stored on the Chordie server. The original song is hosted at www.azchords.com. Chordie works as a search engine and provides on-the-fly formatting. Chordie does not index songs against artists'/composers' will. To remove this song please click here.

Text color:
Chord color:
Chord grids: 
Font size:    
Page size: 

C C/E D D/F# Em7 G G/D
Rate #1 of 10 versions

Jango Player

Login - add to songbook

SHARE PAGE  



You need to log in to post comments