Guitar Tabs, Chords and Lyrics
Server problems seems to be fixed. Chordie has been experiencing problems with songs disappearing. These issues now seems to be fixed, but still verifying the fix. If you find anything strange, please email admin@chordie.com.


Awesome Is the Lord Most High  Chris Tomlin

Author notes: Brand new Chris Tomlin song.
It debuted on the Passion: Everything Glorious worship album.
Capo 1
 
 ------------------
 ---Intro---

[G] [D] [Em7] [C2]  
 
 ---Verse---

[G]Great are you Lord. Mighty in st[D]rength.
[C2]You are faithful. You will ever [G]be.
[G]We will praise You, all of our d[D]ays.
[C2]It's for Your glory, we offer every[Em7]thing.[D]
 
 ---Chorus---

Raise your [G]hands, all Your nations.
Shout to [D]God, all creation.
How [Em7]awesome is the Lord most [C2]high.
 
 ---Verse---

[G]When you send us, God we will [D]go.
[C2]You're the answer, we want the world to [G]know.
[G]We will trust You. When You call our [D]names.
[C2]When you lead us, we'll follow all the w[Em7]ay.[D]
 
 ---Chorus---

Raise your [G]hands, all Your nations.
Shout to [D]God, all creation.
How [Em7]awesome is the Lord most [C2]high.
We will [G]praise You together.
For [D]now and forever.
How [Em7]awesome is the Lord most [C2]high.
 
 ---Bridge---

[G]Hallelujah
[D]Hallelujah
How [Em7]awesome is the Lord most [C2]high.
 
 ------------------
 ---Intro---

(The chords/octaves below aren't written as many times as he plays them, these are just
let you know what to play.)
Also please note the number above the staff/chart/tab table below, above the chord or
for I wont rewrite the chord later, I'll use that number.
1 2 3 4 5 6(this
is not in the intro..but in the chorus)
 
 e--------------------------------------------------------------------------------|
 B--------------------------------------------------------------------------------|
 G-13-13-13-13----8-8-8-8---10-10-10-10---6-6-6-6 5--|
 D--x--x--x--x----x-x-x-x----x--x--x-11---x-x-x-x---------------------------------| 

x
 
 A-11-11-11-11----6-6-6-6----8--8--8--8---4-4-4-4 3--|
 E--------------------------------------------------------------------------------|
 ---Verse---

[1]Great are you Lord. Mighty in strength.[2]
[5]You are faithful. You will ever [1]be.
[1]We will praise You, all of our d[2]ays.
[5]It's for Your glory, we offer ...
...everything.
(I hope this is right It's hard to hear the guitar)
 
 e---------------|
 B---------------|
 G---------------|
 D---------------|
 A------------1--|
 E-1-3-4--3-4----|
 ---Chorus---

Raise your [1]hands, all Your nations.
Shout to [2]God, all creation.
How [6]awesome is the Lord most [5]high.
 
 ---Bridge---

Just play the intro
 
 ---Chorus---
 ---Chorus2---
 e-------------------------------------------------|
 B-------------------------------------------------|
 G-13-13-13-13-13-13-13-13-15-15-15-15-17-17-17-17-|
 D--x--x--x--x--x--x--x--x--x--x--x--x--x--x--x--x-|
 A-11-11-11-11-11-11-11-11-13-13-13-13-15-15-15-15-|
 E-------------------------------------------------|
 e-------------------------------------------------|
 B-------------------------------------------------|
 G-12-12-12-12-12-12-12-12-15-15-15-15-17-17-17-17-|
 D--x--x--x--x--x--x--x--x--x--x--x--x--x--x--x--x-|
 A-10-10-10-10-10-10-10-10-13-13-13-13-15-15-15-15-|
 E-------------------------------------------------|
 e-------------------------------------------------|
 B-------------------------------------------------|
 G-13-13-13-13-13-13-13-13-12-12-12-12-13-13-13-13-|
 D--x--x--x--x--x--x--x--x--x--x--x--x--x--x--x--x-|
 A-11-11-11-11-11-11-11-11-10-10-10-10-11-11-11-11-|
 E-------------------------------------------------|
 e------------------------------------------------|
 B------------------------------------------------|
 G--5-6-6-6-6-6-6-6-6-6-6-6-6-6-6-6-6-6-6-6-6-6-6-|
 D--x-x-x-x-x-x-x-x-x-x-x-x-x-x-x-x-x-x-x-x-x-x-x-|
 A--3-4-4-4-4-4-4-4-4-4-4-4-4-4-4-4-4-4-4-4-4-4-4-|
 E------------------------------------------------|

That should do. Enjoy the new Chris Tomlin song.
Please note these are not official chords. They are just submissions from fans.

Important: The song above is NOT stored on the Chordie server. The original song is hosted at www.azchords.com. Chordie works as a search engine and provides on-the-fly formatting. Chordie does not index songs against artists'/composers' will. To remove this song please click here.

Text color:
Chord color:
Chord grids: 
Font size:    
Page size: 

C2 D Em7 G
Rate #1 of 3 versions

Login - add to songbook

SHARE PAGE  



You need to log in to post comments