Guitar Tabs, Chords and Lyrics
Server problems seems to be fixed. Chordie has been experiencing problems with songs disappearing. These issues now seems to be fixed, but still verifying the fix. If you find anything strange, please email admin@chordie.com.


Let God Arise  Chris Tomlin

KEY OF B
Guitar 1:
INTRO:
 
 E |------------------------------------------------|
 B |------------------------------------------------|
 G |---------4-4-4-4-4--------1-1-1-1-1-------------|
 D |------------------------------------------------|
 A |---2-2-2------------2-2-2-----------------------|
 E |------------------------------------------------|

Guitar 2:
INTRO: B
 
 ----------------------------------

VERSE 1:
[B]Let the holy roar of God resound,
Watch the waters part before us now.
Come and see[G#m] what He has done for us
[F#]Tell the world of His great love,
CHANNEL:
GTR 1
 
 E |------------------------------------------||
 B |------------------------------------------||
 G |-----4-44-4----4-44-4---6-66-4-3-1--------||
 D |--22--2--2--11--1--1--44-4--4------4------||
 A |------------------------------------------||
 E |------------------------------------------||

GTR 2
[(2)] [(2)] [(4)]  
 
 E |---------||--------||-------------|
 B |---------||--------||-------------|
 G |---------||--------||-------------|
 D |--9-9-9-9||-9-9-9-9||-11-11-11-11-|
 A |--7-7-7-7||-6-6-6-6||-9--9--9--9--|
 E |---------||--------||-------------|

Our God[E] is a God[D#/E] who saves.[F#]
Our God[E] is a God[D#/E] who saves.[F#]
CHORUS:
GTR 1 Pattern is: (B G#\A A G#\A B) (see chord chart directly below for position)
B G#\A A
 
 E |----7-----||---------||----9----|
 B |----7-----||----9----||--- 10---|
 G |----8-----||----9----||----9----|
 D |----9-----||----9----||---------|
 A |----------||---------||---------|
 E |----------||---------||---------|

GTR 2 Pattern is: (B G#\A A G#\A B) (see tab directly below for position)
[(2)] [(2)] [(4)]  
 
 E |---------||--------||-------------|
 B |---------||--------||-------------|
 G |---------||--------||-------------|
 D |--9-9-9-9||-9-9-9-9||-11-11-11-11-|
 A |--7-7-7-7||-6-6-6-6||-9--9--9--9--|
 E |---------||--------||-------------|

Let God arise[B], Let God arise[G#/A].
Our God reigns[A] now and forever,
He reigns[B#/A] now and forever.
Interlude (Play twice)
 
 E|--------------------------------------|
 B|-10-10-9-10-10-9-10-9-----------------|
 G|----------------------11-9-9-9-9------|
 D|--------------------------------------|
 A|--------------------------------------|
 E|--------------------------------------|

1st time: B
VERSE 2:
And H[B]is enemies will run for sure
And the church will stand, She will endure
'Cause He h[G#m]olds the keys of life, our Lord,
Death h[F#]as no sting, no final word
(REPEAT CHANNEL)
(REPEAT CHORUS TWICE)
Break (play twice)
E E\D# F#
 
 E |---------||--------||--------|
 B |---------||--------||--------|
 G |---------||--------||--------|
 D |---9-----||---9----||---11---|
 A |---7-----||---6----||---9----|
 E |---------||--------||--------|

Let Ring~
(REPEAT CHANNEL)
(REPEAT CHORUS TWICE)
(REPEAT INTRO)

Important: The song above is NOT stored on the Chordie server. The original song is hosted at www.azchords.com. Chordie works as a search engine and provides on-the-fly formatting. Chordie does not index songs against artists'/composers' will. To remove this song please click here.

Text color:
Chord color:
Chord grids: 
Font size:    
Page size: 

A B D#/E E F# G#m
Rate #1 of 6 versions

Jango Player

Login - add to songbook

SHARE PAGE  



You need to log in to post comments