Guitar Tabs, Chords and Lyrics
Major upgrade!! After one year development the new version of Chordie is now online! Please give feedback.


Made to Worship  Chris Tomlin

I'm the one who also posted the Intro for this song, but I looked at the other tabs for
and they were not quite right, so I'm here to help. This Intro is played throughout the
so you'll have to listen to the song but this is completly accurate and I hope it helps once again!
Tuning: EADGBe
***CAPO 5***
Guitar 1 Intro:
 
 e|------------------12-10-10--------------------------------------------|
 B|------10--13---------------13-------10--13------13-12-12-10-12-10-----|
 G|----12--12--12--------------------12--12--12----------------------12--|
 D|--10----------10----------------10----------10------------------------|
 A|----------------------------------------------------------------------|
 E|----------------------------------------------------------------------|
 e|------------------12-10-10--------------------------------------------|
 B|------10--13---------------13-------10--13------13-12-12-10-12-10-----|
 G|----12--12--12--------------------12--12--12----------------------12--|
 D|--10----------10----------------10----------10------------------------|
 A|----------------------------------------------------------------------|
 E|----------------------------------------------------------------------|

Guitar 2 Intro:
[G] [C] [G] [C]  
Chords:
[G] [C] [D/F#] [Em7] [D] [Am7] [Dsus4]  
 
 e|--3---3---2-----0---2---0----3-------------------------------------|
 B|--3---3---3-----1---3---1----3-------------------------------------|
 G|--0---0---2-----0---2---0----2-------------------------------------|
 D|--0---2---0-----2---0---2----0-------------------------------------|
 A|--2---3---0-----2---x---0----0-------------------------------------|
 E|--3---x---2-----x---x---x----x-------------------------------------|

Verse 1:
[G]Before the day, [D/F#]before the light
[Em7]before the world revolved around the [C]sun
[G]God on High, stepped down [D/F#]into time
and wrote the [Em7]story of His Love for every[C]one[D]
Pre-Chorus:
[Am7]He has filled our [D]hearts with wonder
[Am7]so that we al[C]ways re[D]member
Chorus:
[G]you and I are made to worship
[C]you and I are called to love
[Am7]you and I are forgiven and [Dsus4]free[D]
[G]when you and I embrace surrender
when [C]you and I choose to believe
then [Am7]you and I will [Dsus4]see
who we were meant to [G]be[C] [G] [C]
Verse 2:
[G]all we are and [D/F#]all we have
[Em7]is all a gift from God that we [C]receive
[G]brought to life, we open [D/F#]up our eyes
to see the [Em7]majesty and glory of the [C]King[D]
Bridge:
[Am7]even the rocks cry [G]out
even the heavens [C]shout
at the sound of His [Am7]Holy [D]Name
[Am7]so let every voice sing [G]out
and let every knee bow [C]down
He is worthy of [Am7]all our [D]praise

Important: The song above is NOT stored on the Chordie server. The original song is hosted at www.azchords.com. Chordie works as a search engine and provides on-the-fly formatting. Chordie does not index songs against artists'/composers' will. To remove this song please click here.

Text color:
Chord color:
Chord grids: 
Font size:    
Page size: 

Am7 C D D/F# Dsus4 Em7 G
Rate #1 of 9 versions

Login - add to songbook

SHARE PAGE  




You need to log in to post comments