Guitar Tabs, Chords and Lyrics
Server problems seems to be fixed. Chordie has been experiencing problems with songs disappearing. These issues now seems to be fixed, but still verifying the fix. If you find anything strange, please email admin@chordie.com.


Estrella  Cielo Razzo

Intro:
 
 e|--------------------------------------------|
 B|--------------------------------------------|
 G|-7/9--9/4-4-5-5h7-5------5------------------|
 D|---------------------2-4---7-5h7--7p5-------|
 A|--------------------------------------7-5-3-|
 E|--------------------------------------------|

[Am] [G] [D] [Am]  
Al fin del bien
resucito en las venas.
Toda grieta me quiebra, voy buscando esas huellas.
Y la herida se cierra pero aún sigo estallando.
C5 G5 Bb5 C5 *
Y las vidas se enfrentan de la última a la primera
C5 G5 Bb5 C5 *
tus ángeles me rescatan de la miseria.
[Am] [G] [D] La lealtad se hace gu[Am]erra;[Am] la idiotez un em[G]blema,
[D] mi bandera se qu[Am]ema,[Am] aun hay trozos de[G] ella
[D] que en tus costas se[Am] quedan.
Y me bajas tu estrella como símbolo de inocencia *
tus ángeles me rescatan de la miseria. *
...se enfrentan de la última a la primera *
tus ángeles me rescatan de la miseria. *
[Am] [G] [D] En un fino hori[Am]zonte,[Am] todo un sol que[G] se esconde
h[D]oy sus rayos se[Am] ani[G]man[Am]...
[C]Dame sólo,[Gm] dame sólo[Bb], dame só[C]lo un amanecer... (con armónica)
Dame sólo, dame sólo, dame sólo un amanecer......
Inter x2:
 
 e|------------12v---------------12v---------------12-13-12--8-8h10b11-(8)-|
 B|-10h11-10-8------8-10-11-10-8------8-10-11-10-8-------------------------|
 G|------------------------------------------------------------------------|
 D|------------------------------------------------------------------------|
 A|------------------------------------------------------------------------|
 E|------------------------------------------------------------------------|

C5 G5 Bb5 C5 *
...Se enfrentan de la última a la primera
C5 G5 Bb5 C5 *
tus ángeles me rescatan de la miseria.
[C5]Tu estrella[G5] como símbolo d[Bb5]e inocencia[A5],
C5 G5 Bb5 C5 *
tus ángeles me rescatan de la miseria.
Puente con armónica x2:x
[C] [Gm] [Bb] [C]  
Dame sólo un pedazo sólo un pedazo sólo un pedazo de amanecer...
Dame sólo un pedazo sólo un pedazo sólo un pedazo de amanecer...
Dame sólo un pedazo sólo un pedazo sólo un pedazo de amanecer...
Final:
 
 e|-----8----------10-------------|
 B|---9---9-----11----11---6--5-5-|
 G|-8--------10------------5--5-5-|
 D|------------------------5--5-5-|
 A|-------------------------------|
 E|-------------------------------|

* Nota: en los estribillos, el pájaro hace unos arreglos al desarmar los acordes.
Por esto, en el último Do (C) de cada estribillo, hace:
 
 e|----------|
 B|-1--------|
 G|---0------|
 D|-----3-2v-|
 A|----------|
 E|----------|


Important: The song above is NOT stored on the Chordie server. The original song is hosted at www.azchords.com. Chordie works as a search engine and provides on-the-fly formatting. Chordie does not index songs against artists'/composers' will. To remove this song please click here.

Text color:
Chord color:
Chord grids: 
Font size:    
Page size: 

A5 Am Bb Bb5 C C5 D G G5 Gm
Rate #1 of 1 versions

Jango Player

Login - add to songbook

SHARE PAGE  




You need to log in to post comments