Guitar Tabs, Chords and Lyrics
Server problems seems to be fixed. Chordie has been experiencing problems with songs disappearing. These issues now seems to be fixed, but still verifying the fix. If you find anything strange, please email admin@chordie.com.


Waiting�?�  City and Colour

on any vids so my chords might not be spot on. They sound alright for now i guess. It
alright with the song.
Tuning: Standard (Capo 2)
Chords
[Em] [G1] [G2] [G3]  
 
 e|--0---0---0---0-------------------|
 B|--0---0---0---0-------------------|
 G|--0---0---0---0-------------------|
 D|--2---2---4---5-------------------|
 A|--2---3---5---5-------------------|
 E|--0---3---5---3-------------------|

NOT SURE if the G3 chord, the E string should be muted (x), it sounds alright if muted
held on 3, either way, whichever sounds better to you.
The little background bit that's played in the chorus is:
 
 e|-------------------------------------------------------|
 B|-------------------------------------------------------|
 G|-------0h2--2/4-----------0h2--0------(REPEATED)-------|
 D|---0h2---------------0h2-------------------------------|
 A|-------------------------------------------------------|
 E|-------------------------------------------------------|

[ Verse ] 
[G1]A coma might feel better than this[G3]
[G1]Attempting to discover where to [G3]begin
[G1]You're weighed down, you're full of something
Of [G3]sickness and desertion
[G1]You're weighed down, you're full of something
You're [G3]underneath it all
[ Cborus ] 
[Em]So say goodbye to [G3]love
[G2]And hold your head up [G1]high
[Em]There's no need to [G3]rush
We're all just [G2]waiting
Waiting to[G1] die
(here just strum the first two chords once and then wait and strum downx2 on the last chord)
 
 e|--0---0---0-----------------|
 B|--0---0---0-----------------|
 G|--0---0---0-----------------|
 D|--2---2---4-----------------|
 A|--0h3-3---5-----------------|
 E|--0---3---5-----------------|

[ Verse ] 
[G1]Hope in a better place is all I [G3]need
[G1]With moments of innocence and [G3]mystery
[G1]Oh, it's the little things you miss
Li[G3]ke waking up all alone
[G1]Oh, it's the little things you miss
When you're u[G3]nderneath it all
[ Cborus ] 
[Em]So say goodbye to [G3]love
[G2]And hold your head up [G1]high
[Em]There's no need to [G3]rush
We're all just [G2]waiting
Waiting to[G1] die
[ Bridge ] 
(strum (down)DDDD..etc at a quicker pace)
[G2]All your friends seem like [G1]enemies
When you're broken down and [Em]empty
Oooh[G1] oooh
[G2]All your friends seem like [G1]enemies
When you're broken down and [Em]empty
G1 Em...........
Ooooh oooh
[ Cborus ] 
So say goodbye to love
And hold your head up high
[Em]There's no need to [G3]rush
We're all just [G2]waiting
Waiting to[G1] die
(Repeat the chorus chords)
Ohhhhh ohhh ohhhhhhh
Ohhhhh ohhh ohhhhhhh
The End. Please Rate!

Important: The song above is NOT stored on the Chordie server. The original song is hosted at www.azchords.com. Chordie works as a search engine and provides on-the-fly formatting. Chordie does not index songs against artists'/composers' will. To remove this song please click here.

Text color:
Chord color:
Chord grids: 
Font size:    
Page size: 

Em G2 G3
Rate #1 of 6 versions

Jango Player

Login - add to songbook

SHARE PAGE  



You need to log in to post comments