Guitar Tabs, Chords and Lyrics
Major upgrade!! After one year development the new version of Chordie is now online! Please give feedback.


What's My Name  The Clash

Band: The Clash
Chords:
B5 F# D5 E5 F#5 G5 A5 B5 D5 E5 G5*
 
 -------------------------------------------
 -------------------------------------------
 -4---11--7-------------------7--9--12------
 -4---11--7--2--4----5--7--9--7--9--12------
 -2---9---5--2--4----5--7--9--5--7--10------
 ------------0--2----3--5--7----------------

Riff 1
 
 --------------------------------------------------
 -5-3-2-3-5-3-2-3-0----7-7-7-7-7-6-5-3-------------
 --------------------------------------------------
 --------------------------------------------------
 --------------------------------------------------
 --------------------------------------------------

Riff 2
 
 -------10-7-7------------------------------
 --9-10-------------------------------------
 -------------------------------------------
 -------------------------------------------
 -------------------------------------------
 -------------------------------------------

Riff 3
 
 -------------------------------------------
 --9b-9b-10b-12b----------------------------
 -------------------------------------------
 -------------------------------------------
 -------------------------------------------
 -------------------------------------------

Intro:
Guitar 1 B5 F# D5 x2
Guitar 2 Riff 1
Verse: B5 F# D5 x2
Chorus: E5 F#5 G5 A5 x3
B5 Riff 2
Verse: B5 F# D5 x2
Chorus: E5 F#5 G5 A5 x3
Interlude: D5 A5
[D5] [E5]  
Verse: B5 F# D5 x2
Chorus: E5 F#5 G5 A5 x3
Riff 3
E5 F#5 G5 A5 x3
Outro: B5 G5* E5
Lyrics:
What the hell is wrong with me?
I'm not who i want to be
I tried spot cream an' i tried it all
I'm crawling up the wall
What's my name Naaaame Naaaame Naaaame
I tried to join a ping-pong club
Sign on the door said all full up!
I got nicked, fighting in the road
An' the judge didn't know my name
What's my name
Now i'm round the back of your house at night
Peeping in the window-are you sleeping tight?
I laugh at your locks with my celloid strip
An' you won't know i came
What's my name
Any comments or if you just want to talk about The Clash E-Mail Me

Important: The song above is NOT stored on the Chordie server. The original song is hosted at www.azchords.com. Chordie works as a search engine and provides on-the-fly formatting. Chordie does not index songs against artists'/composers' will. To remove this song please click here.

Text color:
Chord color:
Chord grids: 
Font size:    
Page size: 

D5 E5
Rate #1 of 4 versions

Login - add to songbook

SHARE PAGE  



You need to log in to post comments