Guitar Tabs, Chords and Lyrics
Server problems seems to be fixed. Chordie has been experiencing problems with songs disappearing. These issues now seems to be fixed, but still verifying the fix. If you find anything strange, please email admin@chordie.com.


Spend My Time  Clint Black

(Intro)
Spend My Time
Clint Black
This Sounds right to me...its a nice and simple intro any feedback? ----Neronicon
(CAPO ON 5)
 
 E-------------------------------------------------------
 D------3-0--------0-------------3-0--------0-----------
 G------------2---2---2----------------2---2---2---------
 D----0--------0-------0-------0--------0-------0-------
 A-------------------------------------------------------
 E---3----------------------3----------------------------
 E-------------------------------------------------------
 D------3-0--------0-------------3-0--------0-----------
 G------------2---2---2----------------2---2---2---------
 D----0--------0-------0-------0--------0-------0-------
 A-------------------------------------------------------
 E---0----------------------0----------------------------
 E-------------------------------------------------------
 D------3-0--------0-------------3-0--------0-----------
 G------------2---2---2----------------2---2---2---------
 D----0--------0-------0-------0--------0-------0-------
 A---3----------------------3----------------------------
 E-------------------------------------------------------
 E-------------------------------------------------------
 D------3-0--------0-------------3-0--------0-----------
 G------------2---2---2----------------2---2---2---------
 D----0--------0-------0-------0--------0-------0-------
 A-------------------------------------------------------
 E---3----------------------3----------------------------

***Heres the rest of the song that i decided to add on...
(capo 5)
How can we know how far....
 
 E------------------|
 D------0------0---|
 G----------2--2-2--| 2x's
 D----0--0---0---0-|
 A------------------|
 E---3--------------|

Looking from where we are...
 
 E------------------|
 D------0------0---|
 G----------2--2-2--| 2x's
 D----0--0---0---0-|
 A------------------|
 E---0--------------|

There are many roads behind us...
 
 E------------------|
 D------0------0---|
 G----------2--2-2--| 2x's
 D----0--0---0---0-|
 A---3--------------|
 E------------------|

Seems ive made good time...
 
 E------------------|
 D------0------0---|
 G----------2--2-2--| 2x's
 D----0--0---0---0-|
 A------------------|
 E---3--------------|

(chorus #1)
[Em7]I'm gonna spend my ti[C]me like it's go[G]ing out of st[D]yle
[Em7]I'm moving the bottom li[C]ne farther t[G]han a country [D]mile
[Em7]I still have hills to cl[C]imb bef[Em7]ore I hit that w[A]all, No matter
[C]how much time [C]I buy, I can ne[D]ver spend it [G]all
Run through This once...
 
 E-------------------------------------------------------
 D------3-0--------0-------------3-0--------0-----------
 G------------2---2---2----------------2---2---2---------
 D----0--------0-------0-------0--------0-------0-------
 A-------------------------------------------------------
 E---3----------------------3----------------------------

Then....
Funny thing that time...
 
 E------------------|
 D------0------0---|
 G----------2--2-2--| 2x's
 D----0--0---0---0-|
 A------------------|
 E---3--------------|

Im always losing mine...
 
 E------------------|
 D------0------0---|
 G----------2--2-2--| 2x's
 D----0--0---0---0-|
 A------------------|
 E---0--------------|

And though it's always here...
 
 E------------------|
 D------0------0---|
 G----------2--2-2--| 2x's
 D----0--0---0---0-|
 A---3--------------|
 E------------------|

Days become the years...
 
 E------------------|
 D------0------0---|
 G----------2--2-2--| 2x's
 D----0--0---0---0-|
 A------------------|
 E---3--------------|

(chorus #2)
[Em7]I'm gonna spend my t[C]ime like it's go[G]ing out of st[D]yle
[Em7]I'm moving the bottom li[C]ne farther th[G]an a country m[D]ile
[Em7]I still have hills to cl[C]imb bef[Em7]ore I hit that w[A]all, I won't go
[C]quietly into that dark night There'll be no more burning daylight.
[G]I'll be living in Every mo[D]ment that I'm in
[Em7]I'm gonna spend my ti[C]me like it's go[G]ing out of st[D]yle
[Em7]I'll only use whats mi[C]ne, Ive been s[G]aving for awh[D]ile
[Em7]I still have hills to cl[C]imb bef[Em7]ore I hit that w[A]all, No matter
[C]how much time [C]I buy, I can ne[D]ver spend it [G]all
Then go back to this again Throwing in a little variation to finish her off...
 
 E-------------------------------------------------------
 D------3-0--------0-------------3-0--------0-----------
 G------------2---2---2----------------2---2---2---------
 D----0--------0-------0-------0--------0-------0-------
 A-------------------------------------------------------
 E---3----------------------3----------------------------


Important: The song above is NOT stored on the Chordie server. The original song is hosted at www.azchords.com. Chordie works as a search engine and provides on-the-fly formatting. Chordie does not index songs against artists'/composers' will. To remove this song please click here.

Text color:
Chord color:
Chord grids: 
Font size:    
Page size: 

A C D Em7 G
Rate #1 of 6 versions

Jango Player

Login - add to songbook

SHARE PAGE  



You need to log in to post comments