Guitar Tabs, Chords and Lyrics
Update 25:10. 13:00. Site is back up running again. Songbooks are recovered. Woring on getting search back up..


Gewinner  Clueso

Chords
[am] [F] [C] [G]  
 
 e|------0-------1--------0--------3----------|
 B|------1-------1--------1--------3----------|
 G|------2-------2--------0--------0----------|
 D|------2-------3--------2--------0----------|
 A|------0-------3--------3--------2----------|
 E|--------------1--------3--------3----------|

Clean sound w/ hall effect
Riff 1
Intro: am F C G
else: C G am
 
 e|---------7-7-7-7-5-5-5-5-3-3-3-3\----------------------|
 B|-----------------------------------1-1-1-1--3--5~------|
 G|-------------------------------------------------------|
 D|-------------------------------------------------------|
 A|-------------------------------------------------------|
 E|-------------------------------------------------------|

Riff 2
[C] [G] [am]  
 
 e|--------------3--1--0--------------------------|
 B|------------------------3\-1--3-/5--1~---------|
 G|-----------------------------------------------|
 D|-----------------------------------------------|
 A|-----------------------------------------------|
 E|-----------------------------------------------|

Riff 3
[G] [am]  
 
 e|---7-7-7-7-7-7-7-7-5~----|
 B|-------------------------|
 G|-------------------------|
 D|-------------------------|
 A|-------------------------|
 E|-------------------------|

Riff 4
[C] [G]  
 
 e|---7-7-7-7-5-5-5-5-3-3-3-3~--|
 B|-----------------------------|
 G|-----------------------------|
 D|-----------------------------|
 A|-----------------------------|
 E|-----------------------------|

Riff 5
[am] [F] [C] [G] [am]  
 
 e|--8---------------------------------------------------------------10-------8--------|
 B|-------------------------------------------8----------------------------------------|
 G|------------------------------------------------------------------------------------|
 D|------------------------------------------------------------------------------------|
 A|------------------------------------------------------------------------------------|
 E|------------------------------------------------------------------------------------|

Riff 6
[G] [am]  
 
 e|-------------0-----------|
 B|----------1--------------|
 G|-------2-----------------|
 D|----2--------------------|
 A|-------------------------|
 E|-------------------------|

Riff 7
[G]  
 
 e|----3--------------------|
 B|----3--------------------|
 G|----0--------------------|
 D|----0--------------------|
 A|----2--------------------|
 E|----3--------------------|

Riff 8
[G] [am]  
 
 e|---0-0-0-0-0-0-0-0-0-----|
 B|-------------------1-----|
 G|-------------------2-----|
 D|-------------------2-----|
 A|-------------------0-----|
 E|-------------------------|

Riff 9
[am] [F] [C]  
 
 e|-----7-7-7-7-5-5-5-5-3-3-3-3--------------|
 B|-----------------------------1-1-1-1~-----|
 G|------------------------------------------|
 D|------------------------------------------|
 A|------------------------------------------|
 E|------------------------------------------|

Intro:
[am] [F] [C] [G]  
[am](Rif[F]f 1 [C]- In[G]tro Chords)
[am] An allem, was man sagt, an [F]allem, was man sagt, ist auch was d[C]ran[G]
[am] Egal, wer kommt, egal, wer g[F]eht, egal, es kommt nicht darauf [C]an[G]
[am] Ich glaube nichts, ich glaub an d[F]ich, glaubst du an mich, ich glaub ich a[C]uch[G]
[am] [F] [C] [G] (Riff 3)
Ich frage mich, ich frage dich, doch frag ich nicht, fragst du dich auch
[am] [F] [C] (Riff [G]2)
Ich bin dabei, du bist dabei, wir sind dabei, uns zu verlier'n
[am] [F] [C] (Riff [G]1)
Ich bin dabei, bist du dabei, sind wir dabei, uns zu verlier'n
[am] [F] [C] (Riff[G] 2)
Ich bin dabei, du bist dabei, wir sind dabei, uns zu verlier'n
[am] [F] [C] (Riff[G] 4)
Ich bin dabei, bist du dabei, bin ich dabei, uns zu verlier'n
[am] Leichter als leicht geht es viellei[F]cht, leichter als das, was vielleicht w[C]ar[G]
[am] Leichter als leicht, es ist nicht w[F]eit von hier zu dem, was noch nicht w[C]ar[G]
[am](Riff 5) [F] [C] [G]
Suchst du mich, dann such ich dich, ist die Versuchung gro√? genug
[am] [F] [C] [G] (Riff 6)
Ich lass es zu, komm, lass es zu, komm, lass es uns noch einmal tun
[am] [F] [C] (Rif[G]f 7)
Ich geb nicht auf, gehst du mit mir, gehst du mit mir mit auf uns zu
[am] [F] [C] [G] (Riff 8)
Fällt dir nichts ein? Komm leg nicht auf, komm reg dich auf und komm zur Ruh
[am] [F] [C] (Riff [G]2)
Ich bin dabei, du bist dabei, wir sind dabei, uns zu verlier'n
[am] [F] [C] (Riff [G]1)
Ich bin dabei, bist du dabei, sind wir dabei, uns zu verlier'n
[am] [F] [C] (Riff [G]2)
Ich bin dabei, du bist dabei, wir sind dabei, uns zu verlier'n
[am] [F] [C] (Riff [G]1)
Ich bin dabei, bist du dabei, bin ich dabei, uns zu verlier'n
[am] [F] [C] (Riff [G]2)
Ich bin dabei, du bist dabei, wir sind dabei, uns zu verlier'n
[am] [F] [C] (Riff 3[G])
Ich bin dabei, bist du dabei, sind wir dabei, uns zu verlier'n
[am] (Riff 1)[F] [C] [G]
(R[am]iff 1)[F] [C] [G]
Ich bin dabei, du bist dabei, wir sind dabei
[am](Riff 9)[F] [C]
Ich bin dabei, bist du dabei, sind wir dabei.

Important: The song above is NOT stored on the Chordie server. The original song is hosted at www.azchords.com. Chordie works as a search engine and provides on-the-fly formatting. Chordie does not index songs against artists'/composers' will. To remove this song please click here.

Text color:
Chord color:
Chord grids: 
Font size:    
Page size: 

C F G
Rate #1 of 8 versions

Jango Player

Login - add to songbook

SHARE PAGE  



You need to log in to post comments