Guitar Tabs, Chords and Lyrics
Major upgrade!! After one year development the new version of Chordie is now online! Please give feedback.


Our Lady of Electric Light  Clutch

Riff 1
 
 e|----------------------|
 B|----------------------|
 G|----------------------|
 D|----------------------|
 A|----------------2-----|
 E|------------------3-0-|

Riff 2
 
 e|----------------------|
 B|----------------------|
 G|----------------------|
 D|----------------------|
 A|---------------0-2----|
 E|-------------3--------|

Riff 3
 
 e|----------------------|
 B|----------------------|
 G|----------------------|
 D|----------------------|
 A|----------------------|
 E|----------------3-2-0-|

G* = Just a bend on the 3rd fret of the 6th string
[Intro] 
G* Am
or
 
 |----------------------|-----------------|------------------|-----------------|----------------------|
 |----------------------|-1---------------|-1----------------|-1---------------|-1--------------------|
 |----------------------|-2---------------|-2----------------|-2---------------|-2--------------------|
 |----------------------|-2---------------|-2----------------|-2---------------|-2--------------------|
 |----------------2-----|-0---------------|-0----------2-----|-0---------------|-0-------------0-2----|
 |------------------3-0-|------------3----|--------------3-0-|------------3----|-------------3--------|

[Verse] 
Am Riff 1
They close the curtain
Am Riff 1
To hide from the dawn
Am Riff 1
The Rock-Ola's fire
Am Riff 2
Burns on and on
[Cborus] 
C G Am RIFF 2
Have no fear the dark of night
[C] She walks before us, our [G]lady of electric [Am]lights
Riff 1
[Verse] 
Am Riff 1
She enters the bar room
Am Riff 1
And lifts her veil
Am Riff 1
Wth a voice like running water
Am Riff 2
She tells them her tale
[Cborus] 
C G Am Riff 2
The patrons all break down at the sight
[C]Standing in the presence of our [G]lady of electric[Am] lights
[Interlude] 
E (Riff 3) Am G* x3
[Verse] 
Am Riff 1
Tiny plastic sabers
Am Riff 1
Piled high to my knees
Am Riff 1
Though the war rages on
Am Riff 2
I still find no enemies
Am Riff 1
They draw back the curtain
Am Riff 1
Are blinded by the dawn
Am Riff 1
And the shining Rock-Ola
Am Riff 2
Spins on and on
[Cborus] 
C G Am Riff 2
Now I know I can no longer fight
[C] And I run into the arms of our [G]lady of electric l[Am]ights
C G Am Riff 2
Now I know I can no longer fight
[C] And I run into the arms of our [G]lady of electric l[Am]ights
[Outro] 
Riff 1 (slowing down)

Important: The song above is NOT stored on the Chordie server. The original song is hosted at www.azchords.com. Chordie works as a search engine and provides on-the-fly formatting. Chordie does not index songs against artists'/composers' will. To remove this song please click here.

Text color:
Chord color:
Chord grids: 
Font size:    
Page size: 

Am C G
Rate #1 of 1 versions

Login - add to songbook

SHARE PAGE  



You need to log in to post comments