Guitar Tabs, Chords and Lyrics
Major upgrade!! After one year development the new version of Chordie is now online! Please give feedback.


21:13   Coheed and Cambria

 
 --------------------------------------------------------------------------

 


 2113 - Coheed and Cambria


 

 
 --------------------------------------------------------------------------

 


 


 Tuning: Drop D (D A D G B E)


 


 This is the secret song from In Keeping Secrets of Silent Earth: 3. If you've


 heard it and want to play it, this is it. Enjoy!


 


 Intro


 

 
 e|-------------|--|--------------------------------------------|--------|
 B|-------------|--|--------------------------------------------|--------|
 G|-------------|--|---8--------7---------8----8-7-----8----8-7-|--7-----|
 D|-10-10-10-10-|X2|-------X8------X8---------------------------|-----X8-|
 A|-10-10-10-10-|--|-10-10-----9-9-----10---10------10---10-----|-9-9----|
 E|-10-10-10-13-|--|--------------------------------------------|--------|

 


 


 Verse


 

 
 e|------------------|--|
 B|------------------|--|
 G|---8--------7-----|--|
 D|-------X8------X8-|X4|
 A|-10-10-----9-9----|--|
 E|------------------|--|

 


 . .. ...


 Verse lead (comes in after 1st measure of verse


 

 
 e|-8h10p8---13-11--------------------------|-8h10p8---13-11------------------------------->
 B|-------8---------------------------------|-------8-------------------------------------->
 G|--------10----------8-8-7-5h7------8-8-7-|--------10----------8-8-7-5h7----------7-5-3-->
 D|----------------X3------------5h7--------|----------------X4------------5h7--5--8-7-5-4->
 A|-----------------------------------------|---------------------------------------------->
 E|-----------------------------------------|---------------------------------------------->
 e|-8h10p8-----13-11----------------------------------------|
 B|-------8-10------------------------------------/10-8-7-8-|
 G|-------------------------7-5---------7-5-3-2-0-----------|
 D|------------------X4--7h8-8-7-X2--7h8-8-7-5-3-2----------|
 A|---------------------------------------------------------|
 E|---------------------------------------------------------|

 


 


 Chorus


 

 
 e|-----------------------------------------------------------------|--|
 B|-----------------------------------------------------------------|--|
 G|-88888888887-8-8-7888888887-8-7----------------------------------|--|
 D|-88888888888-8-8-8888888888-8-8-55555555555555555555555555555555-|--|
 A|-66666666666-6-6-6666666666-6-6-55555555555555555555555555555555-|X2|
 E|--------------------------------55555555555555555555555555555555-|--|

 


 ......... ........ ................................


 Chorus alt


 

 
 e|-----------------------------------------------------------------|
 B|-----------------------------------------------------------------|
 G|-88888888887-8-8-7888888887-8-7----------------------------------|
 D|-88888888888-8-8-8888888888-8-8-5555555555555555-----------------|
 A|-66666666666-6-6-6666666666-6-6-5555555555555555------5566886655-|
 E|--------------------------------5555555555555555557788-----------|

 


 ......... ........ ................


 Chorus lead


 

 
 e|-5--5--8--8--8--------------------------------------------|-5--5--8--8--8--8-----|
 B|--6--6--6--6--6-------------------------------------------|--6--6--6--6--6--6----|
 G|----------------------------------------------------------|----------------------|
 D|----------------X2--10h12p10-----12-X3--12-10-------------|-------------------X2-|
 A|----------------------------12-10-------------13-12-10-12-|----------------------|
 E|----------------------------------------------------------|----------------------|

 


 


 Fill 1


 

 
 e|------------------|
 B|------------------|
 G|---8--------7-----|
 D|-------X8------X8-|
 A|-10-10-----9-9----|
 E|------------------|

 


 


 Phase II (chords)


 

 
 e|---------------|
 B|---------------|
 G|---------------|
 D|-12---9---5--4-|
 A|-12---9---5--4-|
 E|-12---9---5--4-|

 


 . .


 Phase II lead


 

 
 e|----------------------------------------------------------|
 B|----------------------------------------------------------|
 G|-12-11--9--11--12-11--9--11----12-11--9--11--12-11--9--7--|
 D|-10-10--10-10--10-10--10-10----10-10--10-10--10-10--10-10-|
 A|----------------------------------------------------------|
 E|----------------------------------------------------------|

 


 


 Phase III


 

 
 e|-----------------------------------------------------|
 B|---------------------2--------3--------3-2-0-----0---|
 G|-------------------0---2----2---2------------2-0---2-|
 D|---4-0-----------0--------4-------0-0----------------|
 A|-5-----0-5-5+--0------------------0-0----------------|
 E|----------------------------------0-0----------------|

 


 


 Phase IV


 

 
 e|--------------------------------------------------------|--|
 B|--------------------------------------------------------|--|
 G|---------------------------------------55---------------|--|
 D|----------------------5--------X2----77--5577--------X2-|X2|
 A|-8-7--8-7--8-7--8-7-5---8p7-5------55--------553300-----|--|
 E|--------------------------------------------------------|--|

 


 


 Phase IV lead


 

 
 e|-------------------------------------------------13------------------->
 B|-10-10--10-10--10-10--10-10-10-8-----------13-15----13---------------->
 G|-10-9---10-9---10-9---10-9--7----10p9-7----------------14----12-14---->
 D|----------------------------------------X2----------------15-------X2->
 A|---------------------------------------------------------------------->
 E|---------------------------------------------------------------------->
 e|-------------------------------------------------13-------------------|
 B|-10-10--10-10--10-10--10-10-10-8-----------13-15----13-15-------------|
 G|-10-9---10-9---10-9---10-9--7----10p9-7-------------------14-12-14----|
 D|----------------------------------------X2-------------------------X2-|
 A|----------------------------------------------------------------------|
 E|----------------------------------------------------------------------|

 


 


 Phase V


 

 
 e|-2-------0--0-----0-------3--3----------------------------------------2-------0--0-----0-------3-3-|
 B|-3-----3------3-----3-----3--3----------------------------------------3-----3------3-----3-----3-3-|
 G|-2---2----------2-----2-0-0--0--7-7-7--7-7-7-------7-7-7--7-7-7-------2---2----------2-----2-0-0-0-|
 D|-0------------------------2--0--7-7-7--7-7-7-------7-7-7--7-7-7-------0------------------------3-0-|
 A|--------------------------3--2--5-5-5--5-5-5---0-3-5-5-5--5-5-5---0-3--------------------------2-2-|
 E|---------------------------------------------5------------------5----------------------------------|

 


 


 Phase V lead


 

 
 e|----8-----------------------|
 B|-10---10-----10-------------|
 G|----------10-------10-------|
 D|----------------12----10-X2-|
 A|----------------------------|
 E|----------------------------|

 


 


 Phase V+1


 

 
 e|-----------------------------------------------------------------------------|
 B|-----------------------------------------------------------------------------|
 G|-7-7-7--7-7-7-------7-7-7--7-7-7-------8-8-8--8-8-8-------8-8-8--8-8-8-------|
 D|-7-7-7--7-7-7-------7-7-7--7-7-7-------8-8-8--8-8-8-------8-8-8--8-8-8-------|
 A|-5-5-5--5-5-5---0-3-5-5-5--5-5-5---0-3-6-6-6--6-6-6---0-3-6-6-6--6-6-6---0-3-|
 E|--------------5------------------5------------------5------------------5-----|

 


 


 Phase V+1 lead


 

 
 e|----8-------------------------------------------|
 B|-10---10----10---------------11-10--------------|
 G|---------10-------10---------------10-12--------|
 D|---------------12----10--X2--------------12--X2-|
 A|------------------------------------------------|
 E|------------------------------------------------|

 


 


 Phase VI


 

 
 e|----------------------------------------------------------------10-10-9-7------>
 B|---------------------------------------------------------7-8-10-----------10-8->
 G|-------------------------------4----------------------------------------------->
 D|---------------------4-5-4-5-7---4-2-7\5-5-5\4-4-4\2-2-0----------------------->
 A|-----------------5-7----------------------------------------------------------->
 E|-0-2-4-0-5-0-7-0--------------------------------------------------------------->
 e|------9-10-12-10-9-------------------------------------------------->
 B|-8-10--------------12-10---8-7-5-------8-7-5------------------------>
 G|-------------------------9-------7-5-4-------7-5-4--7-7-7-7-7-5-4--->
 D|------------------------------------------------------------------7->
 A|-------------------------------------------------------------------->
 E|-------------------------------------------------------------------->
 e|----------------------------------------------------------------------------------------|
 B|--------------------------------------3-------------------------------------------------|
 G|---0-2-3-3-2-0-2--------0-2-3-3-2-0-2-------------------------------------------2-------|
 D|-0---------------3-0--0-----------------X2---0-2-3-3-2-0-2--------0-2-3-3-2-0-2---X2--0-|
 A|-------------------------------------------0--------------------0---------------------0-|
 E|-----------------------------------------------------------3-0------------------------0-|

 


 


 Phase VII


 

 
 e|---------1-----------1-------------1-----------1-----13-------------17---------------20------------|
 B|-----3---3-3-----3---3-3---3---3---3-3-----3---3--------11-------------15---------------15---------|
 G|-2/5---------5-5---------5---5---------5-5-------5---------12-------------15-----17--------17------|
 D|-------0-----------0-------------0-----------0-----0----------X4--0----------X5---------------X5---|
 A|---------------------------------------------------------------------------------------------------|
 E|---------------------------------------------------------------------------------------------------|
 e|-----20-------------5------5------3------3-------|
 B|--------15------------3------3------1------1-----|
 G|-----------17-----3------3------2------2-----2---|
 D|-17-----------X5-------------------------------0-|
 A|-----------------------------------------------0-|
 E|-----------------------------------------------0-|

 


 


 Phase VII lead (comes in on the 17th fret arpeggios and plays repeatedly for the remainder)


 

 
 e|-------------|

 


 B|-4/6-6-4/6-6-|


 

 
 G|-------------|
 D|-----------0-|
 A|-------------|
 E|-------------|

 


 


 Fill 2


 

 
 e|--------------------------------------------------------------------------|
 B|--------------------------------------------------------------------------|
 G|--------------------------------------------------------------------------|
 D|--------------------------------------------------------------------------|
 A|----------55-66-88-66-50-5xx5xxx55xxx5xx5xxx55xxx5xx5xxx55xxx5xx5xxx55xxx-|
 E|-55-77-88-----------------------------------------------------------------|

 


 


 Fill 3


 

 
 e|--------------------------------------------------------------------------|
 B|--------------------------------------------------------------------------|
 G|--------------------------------------------------------------------------|
 D|--------------------------------------------------------------------------|
 A|----------55-66-88-66-50-5xx5xxx66xxx5xx5xx865xxx5xx5xxx66xxx5xx5xxx55xxx-|
 E|-55-77-88-----------------------------------------------------------------|

 


 


 Phase VIII


 

 
 e|-3--------3h5-3h5-3h5-3p0-|
 B|--------------------------|
 G|---0----------------------|
 D|-3---3-X3-3---3---3---3---|
 A|--------------------------|
 E|--------------------------|

 


 


 Phase VIII lead


 

 
 e|-----------------|
 B|-----------------|
 G|---0-------------|
 D|-------X3--------|
 A|-8---8-----0-0-0-|
 E|-----------------|


Important: The song above is NOT stored on the Chordie server. The original song is hosted at www.azchords.com. Chordie works as a search engine and provides on-the-fly formatting. Chordie does not index songs against artists'/composers' will. To remove this song please click here.

This song is displayed as text-only. Transposing and tuning is only available for chordpro-songs.
Rate #1 of 1 versions

Jango Player

Login - add to songbook

SHARE PAGE  



You need to log in to post comments