Guitar Tabs, Chords and Lyrics
Server problems seems to be fixed. Chordie has been experiencing problems with songs disappearing. These issues now seems to be fixed, but still verifying the fix. If you find anything strange, please email admin@chordie.com.


Apollo I: The Writing Writer  Coheed and Cambria

APOLLO I: THE WRITING WRITER
As recorded by Coheed and Cambria
(From the 2005 Album GOOD APOLLO, I'M BURNING STAR IV - VOLUME 1: FROM FEAR THROUGH THE EYES OF MADNESS)
Words by Claudio Sanchez
Music by Coheed and Cambria
Gtr I (Eb Ab Db Gb Bb Eb) - 'dist.'
Gtr II (Eb Ab Db Gb Bb Eb) - 'slight dist.'
Gtr III (Eb Ab Db Gb Bb Eb) - 'dist.'
Gtr IV (Eb Ab Db Gb Bb Eb) - 'dist.'
Verse
Moderately Fast Q=162
[(F#5)] [(Esus4)] [(F#m)] [(F#5)] 
[4/4] Gtr I
 
 ~~~~~~~~~~ PM-------------------------------| ~~~

H.. E +E E E E E E E E E E E E E E E E
 
 |-------------||-------------------------|---------------------|
 |-------------||o------------------------|---------------------|
 |-------------||-------------------------|---------------------|
 |-------------||------11----11---11-9-11-|---11---11----11-----|
 |-----------9-||o-(9)----10----9---------|-9----9-----9------9-|
 |-------------||-------------------------|---------------------|

|
| Gtr II
| PM|
| W E E E E E E E E E E E E H
 
 |-------------||-------------------------|---------------------|
 |-------------||o------------------------|---------------------|
 |-------------||-------------------------|---------------------|
 |-------------||---------11-12----7-9----|--------12-11--------|
 |-------------||o------9---------------7-|------0--------------|
 |-------------||-------------------------|----2----------------|

[(Esus4)] [(F#m)] [(C#m/F#)]  
 
 ~~~~~ PM-----------------------| PM

[+E] [E] [E] [E] [E] [E] [E] [E] [E] [E] [E] [E] [E] [E] [E] [E]  
 
 |------------------------|---------------------|
 |------------------------|------------2--------|
 |------------------------|---------------------|
 |-----11----11---11-9-11-|---11----------------|
 |-(9)----10----9---------|-9----9--0--------2--|
 |------------------------|--------------2------|

|
| PM|
| E E E E E E E E E E E E H
 
 |------------------------|---------------------|
 |------------------------|---------------------|
 |------------------------|---------------------|
 |--------11-12----7-9----|--------12-11--------|
 |------9---------------7-|------0--------------|
 |------------------------|----2----------------|

[(Esus4)] [(Bsus4)] [(C#m/F#)(Esus4)]  
 
 PM PM------------| PM----------|

[+E] [E] [E] [E] [E] [E] [E] [E] [E] [E] [E] [E] [E] [E] [E] [E] [E] [E] [E] [E] [E] [E] [E] [E]  
 
 |-------------------|-------------------|-----------------|
 |-------------------|-------------------|-----------------|
 |---------0---------|-----------0-------|---------0-------|
 |-----4-----4-------|-----4-------4-----|-----4-----4-----|
 |-(2)---2-----2---2-|---2----2------2-2-|---2---2-----2-2-|
 |-------------------|-------------------|-----------------|

|
| PM|
| E E E E E E E E E E E E H E E E E E E E E
 
 |-------------------|-------------------|-----------------|
 |---------5---------|-------------------|-------5---------|
 |-------6-----------|-------------------|-----6-----------|
 |-----4-------7-9---|-------12-11-------|---4-------7-9---|
 |-----------------7-|-----0-------------|---------------7-|
 |-------------------|---2---------------|-----------------|

1.,2. 3.
[(Bsus4)] [(F#5)] [(Bsus4)] Gtrs III, IV
~ ~
E E E E E E E E 3x E E E E E E E E
 
 |--------------------||-----------------------||
 |-------------------o||-----------------------||
 |--------0-----------||---------0-------------||
 |-----4-----4--------||------4-----4----------||
 |---2---------2---9-o||---2----------2--------||
 |--------------------||-------------------3---||

|
| PM|
| E E E E H 3x E E E E E E E E
 
 |--------------------||-----------------------||
 |-------------------o||-----------------------||
 |--------------------||-----------------------||
 |-------12-11--------||--------12-11-9--------||
 |-----0-------------o||---9-12---------12-----||
 |---2----------------||-----------------------||

Pre-Chorus
$
N.C.
~~~ ~~~~~~~~ ~
[+E] [E] [E] [E] [E] [E] [E] [E] [+E] [E] [E] [E] [E] [E] [E] [E] [E] [E] [E] [E] [E] [E] [E] [E] [E] [E] [E] [E] [E] [E] [E] [E]  
 
 |-------------------|-------------------|------------------|------------------|
 |-------------------|-------------------|------------------|------------------|
 |-------------------|---------7-6-0-----|------------------|------------------|
 |-------5-4---------|-------9-------7-9-|------------------|------------------|
 |-----5-----5-7---7-|-(7)-7-------------|-----9---10---9---|-0-0-7-0-7-9-7----|
 |-(3)---------------|-------------------|---7---7----7---7-|---------------3--|

To Coda
~~~ ~~~~~~~~[G5]
[+E] [E] [E] [E] [E] [E] [E] [E] [+E] [E] [E] [E] [E] [E] [E] [E] [E] [E] [E] [E] [E] [E] [E] [E] [E] [E] [E] [E] [E] [E] [E] [E]  
 
 |-------------------|-------------------|------------------|------------------||
 |-------------------|-------------------|------------------|------------------||
 |-------------------|---------7-6-0-----|------------------|------------------||
 |-------5-4---------|-------9-------7-9-|------------------|------------------||
 |-----5-----5-7---7-|-(7)-7-------------|-----9---10---9---|-0-0-7-0-7-9-7-5--||
 |-(3)---------------|-------------------|---7---7----7---7-|---------------3--||

Chorus
[E5] [B5]  
 
 PM----| PM----|

[+E] [E] [E] [E] [E] [E] [E] [E] [+E] [E] [E] [E] [E] [E] [E] [E]  
 
 ||--------------------|-------------------|
 ||o-------------------|-------------------|
 ||--------------------|-------------------|
 ||--------------------|-----------------4-|
 ||o-(5)-5-5-5-5-5---2-|-(2)-2-2-2-2-2---2-|
 ||--(3)-3-3-3-3-3---0-|-(0)-0-0-0-0-0-----|

PM----|[D5] [A/C#D5] [A/C#G5]
[+E] [E] [E] [E] [E] [E] [E] [E] [E] [E] [E] [E] [E] [E] [E] [E]  
 
 |-------------------|------------------||
 |-------------------|-----------------o||
 |-------------------|------------------||
 |-(4)-4-4-4-4-4---7-|---7---7---7------||
 |-(2)-2-2-2-2-2---5-|---4---5---4---5-o||
 |-------------------|---------------3--||

[E5] [B5]  
 
 PM-----| PM----|

[+E] [E] [E] [E] [E] [E] [E] [E] [+E] [E] [E] [E] [E] [E] [E] [E]  
 
 |---------------------|-------------------|
 |---------------------|-------------------|
 |---------------------|-------------------|
 |---------------------|-----------------4-|
 |-(5)-5-5--5-5-5----2-|-(2)-2-2-2-2-2---2-|
 |-(3)-3-3--3-3-3----0-|-(0)-0-0-0-0-0-----|

|
| Gtr I
| E E E E E E E E +E E E Q E E E
 
 |-----7-9-10-9-7------|-------------------|
 |----------------10-8-|-(8)-7-8-7---5-7-5-|
 |---------------------|-------------------|
 |---------------------|-------------------|
 |---------------------|-------------------|
 |---------------------|-------------------|

PM----|[D5] [A/C#D5] [A/C#G5]
[+E] [E] [E] [E] [E] [E] [E] [E] [E] [E] [E] [E] [E] [E] [E] [E]  
 
 |-------------------|------------------|
 |-------------------|------------------|
 |-------------------|------------------|
 |-(4)-4-4-4-4-4---7-|---7---7---7------|
 |-(2)-2-2-2-2-2---5-|---4---5---4---5--|
 |-------------------|---------------3--|

|
| +E E E Q E E E E E E Q Q E
 
 |-------------------|------------------|
 |-(5)-3-5-3---2-3-5-|---3---2---0---0--|
 |-------------------|------------------|
 |-------------------|------------------|
 |-------------------|------------------|
 |-------------------|------------------|

[E5] [B5]  
 
 PM-----| PM--------|

[+E] [E] [E] [E] [E] [E] [E] [E] [+E] [E] [E] [E] [E] [E] [E] [E]  
 
 |-------------------------|-------------------------------|
 |-------------------------|-------------------------------|
 |-------------------------|-------------------------------|
 |-------------------------|-----------------------------4-|
 |-(5)-5-5--5-5-5-----2----|--(2)-2-2--2------2----2-----2-|
 |-(3)-3-3--3-3-3-----0----|--(0)-0-0--0------0----0-------|

|
| E E E E E E E E +Q E E +E +E Q
 
 |-----7-9-10-9-7-----7----|--(7)------9-----(9)--(9)\-----|
 |----------------10-10b12-|-(10)-----12b14-(12)-(12)\-----|
 |-------------------------|-------------------------------|
 |-------------------------|-------------------------------|
 |-------------------------|-------------------------------|
 |-------------------------|-------------------------------|

PM----|[D5] [A/C#D5] [A/C#] [G5]
[+E] [E] [E] [E] [E] [E] [E] [E] [E] [E] [E] [E] [E] [E] [E] [E]  
 
 |---------------------|-----------------------|
 |---------------------|-----------------------|
 |---------------------|-----------------------|
 |-(4)--4-4-4-4-4----7-|---7----7----7---------|
 |-(2)--2-2-2-2-2----5-|---4----5----4------5--|
 |---------------------|--------------------3--|

|
| H.. E E E E E E E +E E
 
 |------------------10-|---9---10--------------|
 |---------------------|------------10-(10)s8--|
 |---------------------|-----------------------|
 |---------------------|-----------------------|
 |---------------------|-----------------------|
 |---------------------|-----------------------|

[(F#5)]Gtr I
+W +H.. E
 
 |------------|------------------||
 |------------|------------------||
 |------------|------------------||
 |------------|------------------||
 |-(5)--------|-(5)------------9-||
 |-(3)--------|-(3)--------------||

|
| +W +H. +E E
 
 |------------|------------------||
 |-(8)--------|-(8)-------(8)\---||
 |------------|------------------||
 |------------|------------------||
 |------------|------------------||
 |------------|------------------||

Verse
[(Esus4)] [(F#m)] [(F#5)]  
 
 ~~~ PM-------------------------------| ~~~

[+E] [E] [E] [E] [E] [E] [E] [E] [E] [E] [E] [E] [E] [E] [E] [E]  
 
 ||-------------------------|---------------------|
 ||o------------------------|---------------------|
 ||-------------------------|---------------------|
 ||------11----11---11-9-11-|---11---11----11-----|
 ||o-(9)----10----9---------|-9----9-----9------9-|
 ||-------------------------|---------------------|

|
| Gtr II
| PM|
| E E E E E E E E E E E E H
 
 ||-------------------------|---------------------|
 ||o------------------------|---------------------|
 ||-------------------------|---------------------|
 ||---------11-12----7-9----|--------12-11--------|
 ||o------9---------------7-|------0--------------|
 ||-------------------------|----2----------------|

[(Esus4)] [(F#m)] [(F#m/C#)]  
 
 ~~~~~ PM-----------------------| PM

[+E] [E] [E] [E] [E] [E] [E] [E] [E] [E] [E] [E] [E] [E] [E] [E]  
 
 |------------------------|--------------------|
 |------------------------|------------2-------|
 |------------------------|--------------------|
 |-----11----11---11-9-11-|---11---------------|
 |-(9)----10----9---------|-9----9--0--------2-|
 |------------------------|--------------2-----|

|
| PM|
| E E E E E E E E E E E E H
 
 |------------------------|--------------------|
 |------------------------|--------------------|
 |------------------------|--------------------|
 |--------11-12----7-9----|--------12-11-------|
 |------9---------------7-|------0-------------|
 |------------------------|----2---------------|

[(Esus4)] [(Bsus4)] [(F#m/C#)(Esus4)]  
 
 PM PM------------| PM----------|

[+E] [E] [E] [E] [E] [E] [E] [E] [E] [E] [E] [E] [E] [E] [E] [E] [E] [E] [E] [E] [E] [E] [E] [E]  
 
 |-------------------|-------------------|-----------------|
 |-------------------|-------------------|-----------------|
 |---------0---------|-----------0-------|---------0-------|
 |-----4-----4-------|-----4-------4-----|-----4-----4-----|
 |-(2)---2-----2---2-|---2----2------2-2-|---2---2-----2-2-|
 |-------------------|-------------------|-----------------|

|
| PM|
| E E E E E E E E E E E E H E E E E E E E E
 
 |-------------------|-------------------|-----------------|
 |---------5---------|-------------------|-------5---------|
 |-------6-----------|-------------------|-----6-----------|
 |-----4-------7-9---|-------12-11-------|---4-------7-9---|
 |-----------------7-|-----0-------------|---------------7-|
 |-------------------|---2---------------|-----------------|

1. 2.
[(Bsus4)] [(F#5)] [(Bsus4)] [G5]Gtrs III, IV
~
[E] [E] [E] [E] [E] [E] [E] [E] [E] [E] [E] [E] [E] [E] [E] [E]  
 
 |--------------------||---------------------||
 |-------------------o||---------------------||
 |--------0-----------||--------0------------||
 |-----4-----4--------||-----4-----4---------||
 |---2---------2---9-o||---2---------2---5---||
 |--------------------||-----------------3---||

|
| PM| PM|
| E E E E H E E E E H
 
 |--------------------||---------------------||
 |-------------------o||---------------------||
 |--------------------||---------------------||
 |-------12-11--------||-------12-11---------||
 |-----0-------------o||-----0---------------||
 |---2----------------||---2-----------------||

Chorus
[E5] [B5]  
 
 PM-----| PM----|

[+E] [E] [E] [E] [E] [E] [E] [E] [+E] [E] [E] [E] [E] [E] [E] [E]  
 
 ||----------------------|-------------------|
 ||o---------------------|-------------------|
 ||----------------------|-------------------|
 ||----------------------|-----------------4-|
 ||o-(5)-5-5--5-5-5----2-|-(2)-2-2-2-2-2---2-|
 ||--(3)-3-3--3-3-3----0-|-(0)-0-0-0-0-0-----|

|
| Gtr I
| E E E E E E E E +E E E Q E E E
 
 ||------7-9-10-9-7------|-------------------|
 ||o----------------10-8-|-(8)-7-8-7---5-7-5-|
 ||----------------------|-------------------|
 ||----------------------|-------------------|
 ||o---------------------|-------------------|
 ||----------------------|-------------------|

PM----|[D5] [C#5] [D5] [G5]
[+E] [E] [E] [E] [E] [E] [E] [E] [E] [E] [E] [E] [E] [E] [E] [E]  
 
 |-------------------|------------------||
 |-------------------|-----------------o||
 |-------------------|------------------||
 |-(4)-4-4-4-4-4---7-|---7---7---7------||
 |-(2)-2-2-2-2-2---5-|---4---5---4---5-o||
 |-------------------|---------------3--||

|
| +E E E Q E E E E E E Q Q E
 
 |-------------------|------------------||
 |-(5)-3-5-3---2-3-5-|---3---2---0---0-o||
 |-------------------|------------------||
 |-------------------|------------------||
 |-------------------|-----------------o||
 |-------------------|------------------||

[E5] [B5]  
 
 PM-----| PM--------|

[E] [E] [E] [E] [E] [E] [E] [E] [+E] [E] [E] [E] [E] [E] [E] [E]  
 
 |-----------------------|-------------------------------|
 |-----------------------|-------------------------------|
 |-----------------------|-------------------------------|
 |-----------------------|-----------------------------4-|
 |-5-5-5--5-5-5-----2----|--(2)-2-2--2------2----2-----2-|
 |-3-3-3--3-3-3-----0----|--(0)-0-0--0------0----0-------|

|
| E E E E E E E E +Q E E +E +E Q
 
 |---7-9-10-9-7-----7----|--(7)------9-----(9)--(9)\-----|
 |--------------10-10b12-|-(10)-----12b14-(12)-(12)\-----|
 |-----------------------|-------------------------------|
 |-----------------------|-------------------------------|
 |-----------------------|-------------------------------|
 |-----------------------|-------------------------------|

PM-----|[D5] [C#5] [D5] [G5]
[+E] [E] [E] [E] [E] [E] [E] [E] [E] [E] [E] [E] [E] [E] [E] [E]  
 
 |---------------------|-----------------------------|
 |---------------------|-----------------------------|
 |---------------------|-----------------------------|
 |-(4)-4-4--4-4-4----7-|-----7----7--------7---------|
 |-(2)-2-2--2-2-2----5-|-----4----5--------4------5--|
 |---------------------|--------------------------3--|

|
| ~~~~~~~~ ~~
| E E E E E E E E +Q E Q +E E E
 
 |-----7-9-10-9-7----7-|-(7)-----12b14r==(12)----12--|
 |----------------10---|----------------------15-----|
 |---------------------|-----------------------------|
 |---------------------|-----------------------------|
 |---------------------|-----------------------------|
 |---------------------|-----------------------------|

[E5] [B5]  
 
 PM--------| PM-----|

[+E] [E] [E] [E] [E] [E] [E] [E] [+E] [E] [E] [E] [E] [E] [E] [E]  
 
 |----------------------------|------------------------|
 |----------------------------|------------------------|
 |----------------------------|------------------------|
 |----------------------------|----------------------4-|
 |--(5)--5-----5-5-5-5------2-|-(2)-2-2--2-2---2-----2-|
 |--(3)--3-----3-3-3-3------0-|-(0)-0-0--0-0---0-------|

|
| ~~~~ ~~
| +E S S H +E E +Q. Q +Q E
 
 |-(12)-14-12-10-------(10)-9-|-(9)--------------------|
 |----------------------------|---------10---(10)s==12-|
 |----------------------------|------------------------|
 |----------------------------|------------------------|
 |----------------------------|------------------------|
 |----------------------------|------------------------|

PM----|[D5] [C#5] [D5] [G5]
[+E] [E] [E] [E] [E] [E] [E] [E] [E] [E] [E] [E] [E] [E] [E] [E]  
 
 |--------------------|--------------------|
 |--------------------|--------------------|
 |--------------------|--------------------|
 |--(4)-4-4-4-4-4---7-|------7---7---7-----|
 |--(2)-2-2-2-2-2---5-|------4---5---4---5-|
 |--------------------|------------------3-|

|
| +W +W
 
 |--------------------|--------------------|
 |-(12)---------------|-(12)---------------|
 |--------------------|--------------------|
 |--------------------|--------------------|
 |--------------------|--------------------|
 |--------------------|--------------------|

[(F#5)]Gtr I
+W +H.. E
 
 |---------------|--------------||
 |---------------|--------------||
 |---------------|--------------||
 |---------------|--------------||
 |--(5)----------|-(5)--------9-||
 |--(3)----------|-(3)----------||

|
| +H H W
 
 |---------------|--------------||
 |-(12)\---------|--------------||
 |---------------|--------------||
 |---------------|--------------||
 |---------------|--------------||
 |---------------|--------------||

Interlude
[(Esus4)] [(F#m)] [(F#5)]  
 
 ~~~ PM-------------------------------| ~~~

[+E] [E] [E] [E] [E] [E] [E] [E] [E] [E] [E] [E] [E] [E] [E] [E]  
 
 ||-------------------------|---------------------|
 ||o------------------------|---------------------|
 ||-------------------------|---------------------|
 ||------11----11---11-9-11-|---11---11----11-----|
 ||o-(9)----10----9---------|-9----9-----9------9-|
 ||-------------------------|---------------------|

|
| Gtr II
| PM|
| E E E E E E E E E E E E H
 
 ||-------------------------|---------------------|
 ||o------------------------|---------------------|
 ||-------------------------|---------------------|
 ||---------11-12----7-9----|--------12-11--------|
 ||o------9---------------7-|------0--------------|
 ||-------------------------|----2----------------|

[(Esus4)] [(F#m)] [(C#m/F#)]  
 
 ~~~~~ PM-----------------------| PM

[+E] [E] [E] [E] [E] [E] [E] [E] [E] [E] [E] [E] [E] [E] [E] [E]  
 
 |------------------------|--------------------|
 |------------------------|------------2-------|
 |------------------------|--------------------|
 |-----11----11---11-9-11-|---11---------------|
 |-(9)----10----9---------|-9----9--0--------2-|
 |------------------------|--------------2-----|

|
| PM|
| E E E E E E E E E E E E H
 
 |------------------------|--------------------|
 |------------------------|--------------------|
 |------------------------|--------------------|
 |--------11-12----7-9----|--------12-11-------|
 |------9---------------7-|------0-------------|
 |------------------------|----2---------------|

[(Esus4)] [(Bsus4)] [(C#m/F#)(Esus4)]  
 
 PM PM------------| PM----------|

[+E] [E] [E] [E] [E] [E] [E] [E] [E] [E] [E] [E] [E] [E] [E] [E] [E] [E] [E] [E] [E] [E] [E] [E]  
 
 |-------------------|-------------------|-----------------|
 |-------------------|-------------------|-----------------|
 |---------0---------|-----------0-------|---------0-------|
 |-----4-----4-------|-----4-------4-----|-----4-----4-----|
 |-(2)---2-----2---2-|---2----2------2-2-|---2---2-----2-2-|
 |-------------------|-------------------|-----------------|

|
| PM|
| E E E E E E E E E E E E H E E E E E E E E
 
 |-------------------|-------------------|-----------------|
 |---------5---------|-------------------|-------5---------|
 |-------6-----------|-------------------|-----6-----------|
 |-----4-------7-9---|-------12-11-------|---4-------7-9---|
 |-----------------7-|-----0-------------|---------------7-|
 |-------------------|---2---------------|-----------------|

1. 2.
D.S. al Coda
[(Bsus4)] Gtrs III, IV
~ ~
[E] [E] [E] [E] [E] [E] [E] [E] [E] [E] [E] [E] [E] [E] [E] [E]  
 
 |--------------------||---------------------||
 |-------------------o||---------------------||
 |--------0-----------||--------0------------||
 |-----4-----4--------||-----4-----4---------||
 |---2---------2---9-o||---2---------2-------||
 |--------------------||-----------------3---||

|
| PM| PM|
| E E E E H E E E E H
 
 |--------------------||---------------------||
 |-------------------o||---------------------||
 |--------------------||---------------------||
 |-------12-11--------||-------12-11---------||
 |-----0-------------o||-----0---------------||
 |---2----------------||---2-----------------||

Breakdown
&
Gtrs III, IV[(G5)]
~~~~~~~~~~~~~~~
E E E E E E E E +E E E S S S S S S E S S
 
 |------------------------||----------------------------------|
 |------------------------||----------------------------------|
 |------------------------||----------------------------------|
 |------------------------||----------------------------------|
 |-0---0-7-0-7-9-7--------||-------------x-x--x--x-x------x-x-|
 |------------------3-----||--(3)--0--3--x-x--x--x-x------x-x-|

|
| Gtr I
| H.. E +Q E E Q. E
 
 |-----------------12b14==||=(12)r---12-10--------------------|
 |------------------------||-----------------12----------10---|
 |------------------------||----------------------------------|
 |------------------------||----------------------------------|
 |------------------------||----------------------------------|
 |------------------------||----------------------------------|

[A5] [B5]  
 
 PM------|

S S S E. E E E E E +Q E E e. e. e
 
 |-----------------------------|---------------------|
 |-----------------------------|---------------------|
 |-----------------------------|---------------------|
 |-----------------------------|---------------------|
 |--x--x-x-----x--5--7---9-----|-(9)\----0-9--9--0---|
 |--x--x-x-----x--3--5---7-----|-(7)\----0-7--7--0---|

|
| Q. E E E E E +Q E E e. e. E
 
 |------------------12---------|---------------------|
 |-12---------10-12------------|---------------------|
 |-----------------------9b11==|=(9)r--9-7-----------|
 |-----------------------------|-----------9--9--7---|
 |-----------------------------|---------------------|
 |-----------------------------|---------------------|

[G5] [D/FG5] [D/F#]  
 
 PM-----------| PM--------------

e. e. e e. e. E Q E E E Q E
 
 |--------------------------|------------------------|
 |--------------------------|------------------------|
 |--------------------------|------------------------|
 |--------------------------|------------------------|
 |-9--9--0-9----9-----5-----|---5--------5--5------5-|
 |-7--7--0-7----7-----3-----|---3--------2--3------2-|

|
| e. e. E E E E E +Q E E Q. E
 
 |-------------------12b14==|=(12)r--12-10-----------|
 |--------------------------|--------------12-----10-|
 |------------7-------------|------------------------|
 |-9--9--7-9----------------|------------------------|
 |--------------------------|------------------------|
 |--------------------------|------------------------|

H.=H
[G5] [D/FG5] [A5] [B5]  
 
 --------------| PM------|

E Q E E E E E +Q E E e. e. e
 
 |-------------------------|-------------------|
 |-------------------------|-------------------|
 |-------------------------|-------------------|
 |-------------------------|-------------------|
 |--5------5--5--7---9-----|-(9)\----0-9--9--0-|
 |--3------2--3--5---7-----|-(7)\----0-7--7--0-|

|
| Q. E E E E E +Q E E e. e. E
 
 |--------------12---------|-------------------|
 |-12-----10-12------------|-------------------|
 |-------------------9b11==|=(9)r--9-7---------|
 |-------------------------|-----------9--9--7-|
 |-------------------------|-------------------|
 |-------------------------|-------------------|

SlowH=HQ=135
[A5] [G5]  
 
 PM---------|

e. e. e e. e. E +W +H.. E
 
 |-----------------|----------------|-------------------||
 |-----------------|----------------|-------------------||
 |-----------------|----------------|-------------------||
 |-----------------|----------------|-------------------||
 |-9--0--9-9--0--7-|-(7)------------|-(7)-------------5-||
 |-7--0--7-7--0--5-|-(5)------------|-(5)-------------3-||

|
| e. e. E E. e. E +Q. S S H +H E Q E
 
 |-----------------|----------------|------------10\----||
 |-----------------|----------------|---------12--------||
 |------------7--7-|-(7)---9p7-6----|-(6)---------------||
 |-9--9--7-9-------|----------------|-------------------||
 |-----------------|----------------|-------------------||
 |-----------------|----------------|-------------------||

Out-Chorus
A Tempo Q=162
[E5] [B5]  
 
 PM-----| PM----|

[+E] [E] [E] [E] [E] [E] [E] [E] [+E] [E] [E] [E] [E] [E] [E] [E]  
 
 ||----------------------|-------------------|
 ||o---------------------|-------------------|
 ||----------------------|-------------------|
 ||----------------------|-----------------4-|
 ||o-(5)-5-5--5-5-5----2-|-(2)-2-2-2-2-2---2-|
 ||--(3)-3-3--3-3-3----0-|-(0)-0-0-0-0-0-----|

|
| E E E E E E E E +E E E Q E E E
 
 ||------7-9-10-9-7------|-------------------|
 ||o----------------10-8-|-(8)-7-8-7---5-7-5-|
 ||----------------------|-------------------|
 ||----------------------|-------------------|
 ||o---------------------|-------------------|
 ||----------------------|-------------------|

PM----|[D5] [C#5] [D5] [G5]
[+E] [E] [E] [E] [E] [E] [E] [E] [E] [E] [E] [E] [E] [E] [E] [E]  
 
 |-------------------|------------------||
 |-------------------|-----------------o||
 |-------------------|------------------||
 |-(4)-4-4-4-4-4---7-|---7---7---7------||
 |-(2)-2-2-2-2-2---5-|---4---5---4---5-o||
 |-------------------|---------------3--||

|
| +E E E Q E E E E E E Q Q E
 
 |-------------------|------------------||
 |-(5)-3-5-3---2-3-5-|---3---2---0---0-o||
 |-------------------|------------------||
 |-------------------|------------------||
 |-------------------|-----------------o||
 |-------------------|------------------||

[E5] [B5]  
 
 PM-----| PM--------|

[+E] [E] [E] [E] [E] [E] [E] [E] [+E] [E] [E] [E] [E] [E] [E] [E]  
 
 |-------------------------|-------------------------------|
 |-------------------------|-------------------------------|
 |-------------------------|-------------------------------|
 |-------------------------|-----------------------------4-|
 |-(5)-5-5--5-5-5-----2----|--(2)-2-2--2------2----2-----2-|
 |-(3)-3-3--3-3-3-----0----|--(0)-0-0--0------0----0-------|

|
| E E E E E E E E +Q E E +E +E Q
 
 |-----7-9-10-9-7-----7----|--(7)------9-----(9)--(9)\-----|
 |----------------10-10b12-|-(10)-----12b14-(12)-(12)\-----|
 |-------------------------|-------------------------------|
 |-------------------------|-------------------------------|
 |-------------------------|-------------------------------|
 |-------------------------|-------------------------------|

PM-----|[D5] [C#5] [D5] [G5]
[+E] [E] [E] [E] [E] [E] [E] [E] [E] [E] [E] [E] [E] [E] [E] [E]  
 
 |---------------------|-----------------------------|
 |---------------------|-----------------------------|
 |---------------------|-----------------------------|
 |-(4)-4-4--4-4-4----7-|-----7----7--------7---------|
 |-(2)-2-2--2-2-2----5-|-----4----5--------4------5--|
 |---------------------|--------------------------3--|

|
| ~~~~~~~~ ~~
| E E E E E E E E +Q E Q +E E E
 
 |-----7-9-10-9-7----7-|-(7)-----12b14r==(12)----12--|
 |----------------10---|----------------------15-----|
 |---------------------|-----------------------------|
 |---------------------|-----------------------------|
 |---------------------|-----------------------------|
 |---------------------|-----------------------------|

[E5] [B5]  
 
 PM--------| PM-----|

[+E] [E] [E] [E] [E] [E] [E] [E] [+E] [E] [E] [E] [E] [E] [E] [E]  
 
 |----------------------------|------------------------|
 |----------------------------|------------------------|
 |----------------------------|------------------------|
 |----------------------------|----------------------4-|
 |--(5)--5-----5-5-5-5------2-|-(2)-2-2--2-2---2-----2-|
 |--(3)--3-----3-3-3-3------0-|-(0)-0-0--0-0---0-------|

|
| ~~~~ ~~
| +E S S H +E E +Q. Q +Q E
 
 |-(12)-14-12-10-------(10)-9-|-(9)--------------------|
 |----------------------------|---------10---(10)s==12-|
 |----------------------------|------------------------|
 |----------------------------|------------------------|
 |----------------------------|------------------------|
 |----------------------------|------------------------|

PM----|[D5] [C#5] [D5] [G5]
[+E] [E] [E] [E] [E] [E] [E] [E] [E] [E] [E] [E] [E] [E] [E] [E]  
 
 |----------------------|----------------------|
 |----------------------|----------------------|
 |----------------------|----------------------|
 |--(4)--4-4-4-4-4----7-|---7----7----7--------|
 |--(2)--2-2-2-2-2----5-|---4----5----4------5-|
 |----------------------|--------------------3-|

|
| +H.. E E E E E E E +E E
 
 |-------------------10-|---9---10-------------|
 |-(12)-----------------|------------10-(10)s8-|
 |----------------------|----------------------|
 |----------------------|----------------------|
 |----------------------|----------------------|
 |----------------------|----------------------|

[E5] [B5]  
 
 PM-----| PM----|

[+E] [E] [E] [E] [E] [E] [E] [E] [+E] [E] [E] [E] [E] [E] [E] [E]  
 
 |---------------------|-------------------|
 |---------------------|-------------------|
 |---------------------|-------------------|
 |---------------------|-----------------4-|
 |-(5)-5-5--5-5-5----2-|-(2)-2-2-2-2-2---2-|
 |-(3)-3-3--3-3-3----0-|-(0)-0-0-0-0-0-----|

|
| E E E E E E E E +E E E Q E E E
 
 |-----7-9-10-9-7------|-------------------|
 |----------------10-8-|-(8)-7-8-7---5-7-5-|
 |---------------------|-------------------|
 |---------------------|-------------------|
 |---------------------|-------------------|
 |---------------------|-------------------|

PM----|[D5] [C#5] [D5] [G5]
[+E] [E] [E] [E] [E] [E] [E] [E] [E] [E] [E] [E] [E] [E] [E] [E]  
 
 |-------------------|------------------|
 |-------------------|------------------|
 |-------------------|------------------|
 |-(4)-4-4-4-4-4---7-|---7---7---7------|
 |-(2)-2-2-2-2-2---5-|---4---5---4---5--|
 |-------------------|---------------3--|

|
| +E E E Q E E E E E E Q Q E
 
 |-------------------|------------------|
 |-(5)-3-5-3---2-3-5-|---3---2---0---0--|
 |-------------------|------------------|
 |-------------------|------------------|
 |-------------------|------------------|
 |-------------------|------------------|

[E5] [B5]  
 
 PM-----| PM----|

[+E] [E] [E] [E] [E] [E] [E] [E] [+E] [E] [E] [E] [E] [E] [E] [E]  
 
 |---------------------|-------------------|
 |---------------------|-------------------|
 |---------------------|-------------------|
 |---------------------|-----------------4-|
 |-(5)-5-5--5-5-5----2-|-(2)-2-2-2-2-2---2-|
 |-(3)-3-3--3-3-3----0-|-(0)-0-0-0-0-0-----|

|
| E E E E E E E E +E E E Q E E E
 
 |-----7-9-10-9-7------|-------------------|
 |----------------10-8-|-(8)-7-8-7---5-7-5-|
 |---------------------|-------------------|
 |---------------------|-------------------|
 |---------------------|-------------------|
 |---------------------|-------------------|

PM----|[D5] [C#5] [D5] [G5]
[+E] [E] [E] [E] [E] [E] [E] [E] [E] [E] [E] [E] [E] [E] [E] [E]  
 
 |-------------------|------------------|
 |-------------------|------------------|
 |-------------------|------------------|
 |-(4)-4-4-4-4-4---7-|---7---7---7------|
 |-(2)-2-2-2-2-2---5-|---4---5---4---5--|
 |-------------------|---------------3--|

|
| +E E E Q E E E E E E Q Q E
 
 |-------------------|------------------|
 |-(5)-3-5-3---2-3-5-|---3---5---0---0--|
 |-------------------|------------------|
 |-------------------|------------------|
 |-------------------|------------------|
 |-------------------|------------------|

[E5] [B5]  
 
 PM-----| PM--------|

[+E] [E] [E] [E] [E] [E] [E] [E] [+E] [E] [E] [E] [E] [E] [E] [E]  
 
 |-------------------------|-------------------------------|
 |-------------------------|-------------------------------|
 |-------------------------|-------------------------------|
 |-------------------------|-----------------------------4-|
 |-(5)-5-5--5-5-5-----2----|--(2)-2-2--2------2----2-----2-|
 |-(3)-3-5--3-3-3-----0----|--(0)-0-0--0------0----0-------|

|
| E E E E E E E E +Q E E +E +E Q
 
 |-----7-9-10-9-7-----7----|--(7)------9-----(9)--(9)\-----|
 |----------------10-10b12-|-(10)-----12b14-(12)-(12)\-----|
 |-------------------------|-------------------------------|
 |-------------------------|-------------------------------|
 |-------------------------|-------------------------------|
 |-------------------------|-------------------------------|

PM----|[D5] [C#5] [D5] [G5]
[+E] [E] [E] [E] [E] [E] [E] [E] [E] [E] [E] [E] [E] [E] [E] [E]  
 
 |-------------------|----------------------------|
 |-------------------|----------------------------|
 |-------------------|----------------------------|
 |-(4)-4-4-4-4-4---7-|-----7----7--------7--------|
 |-(2)-2-2-2-2-2---5-|-----4----5--------4-----5--|
 |-------------------|-------------------------3--|

|
| ~~~~~~~~ ~~
| E E E E E E E E +Q E Q +E E E
 
 |-------------------|---------12b14r==(12)---12--|
 |-------------------|----------------------------|
 |-------------------|----------------------------|
 |-------------------|----------------------------|
 |-----------------2-|-(2)------------------------|
 |-----0-0-0-0-2-3---|----------------------------|

[E5] [B5] [D5]  
 
 PM--------| PM----| PM-----|

[+E] [E] [E] [E] [E] [E] [E] [E] [+E] [E] [E] [E] [E] [E] [E] [E] [+E] [E] [E] [E] [E] [E] [E] [E]  
 
 |----------------------------|-------------------|--------------------|
 |----------------------------|-------------------|--------------------|
 |----------------------------|-------------------|--------------------|
 |----------------------------|-----------------4-|-(4)-4-4--4-4-4---7-|
 |--(5)--5-----5-5-5-5------2-|-(2)-2-2-2-2-2---2-|-(2)-2-2--2-2-2---5-|
 |--(3)--3-----3-3-3-3------0-|-(0)-0-0-0-0-0-----|--------------------|

|
| ~~~~ ~~ ~~~~~~~~
| +E S S H +E E +E E E E E E E E +Q Q. E E E
 
 |-(12)-12-10-----------------|-------------------|--------------------|
 |------------12-------(12)---|-------------------|--------------------|
 |----------------------------|-------------------|--------------------|
 |----------------------------|-------------------|------------------7-|
 |----------------------------|---------------0-2-|-(2)----------2---5-|
 |--------------------------0-|-(0)-0-2-0-2-3-----|--------------------|

[C#5]Gtrs[D5] I, III,[G5] IV
E E E E E E E E +W +W
 
 |-----------------|------------|--------*|
 |-----------------|------------|--------*|
 |-----------------|------------|--------*|
 |---7---7---7-----|------------|--------*|
 |---4---5---4---5-|-(5)--------|-(5)----*|
 |---------------3-|-(3)--------|-(3)----*|

Duration Legend
 
 ---------------
 W - whole; H - half; Q - quarter; E - 8th; S - 16th; T - 32nd; X - 64th; a - acciaccatura

+ - note tied to previous; . - note dotted; .. - note double dotted
Uncapitalized letters represent notes that are staccato (1/2 duration)
Irregular groupings are notated above the duration line
Duration letters will always appear directly above the note/fret number it represents the
duration for. Duration letters with no fret number below them represent rests. Multi-
bar rests are notated in the form Wxn, where n is the number of bars to rest for. Low
melody durations appear below the staff
Tablature Legend
 
 ----------------

h - hammer-on
p - pull-off
b - bend
pb - pre-bend
r - bend release (if no number after the r, then release immediately)
/\ - slide into or out of (from/to "nowhere")
s - legato slide
S - shift slide
<n> - natural harmonic
(n) - artificial harmonic
n(n) - tapped harmonic
~ - vibrato
tr - trill
T - tap
TP - trem. picking
PM - palm muting
\n/ - tremolo bar dip; n = amount to dip
\n - tremolo bar down
n/ - tremolo bar up
/n\ - tremolo bar inverted dip
= - hold bend; also acts as connecting device for hammers/pulls
<> - volume swell (louder/softer)
x - on rhythm slash represents muted slash
o - on rhythm slash represents single note slash
Misc Legend
 
 -----------

| - bar
|| - double bar
||o - repeat start
o|| - repeat end
*| - double bar (ending)
: - bar (freetime)
$ - Segno
& - Coda
Tempo markers - <E/E./Q/Q./H/H.> = BPM(8/16=s8/s16), where s8 = swing 8ths, s16 = swing 16ths

Important: The song above is NOT stored on the Chordie server. The original song is hosted at www.azchords.com. Chordie works as a search engine and provides on-the-fly formatting. Chordie does not index songs against artists'/composers' will. To remove this song please click here.

Text color:
Chord color:
Chord grids: 
Font size:    
Page size: 

A/C# A5 B5 C#5 D/F# D5 E E5 G5
Rate #1 of 2 versions

Login - add to songbook

SHARE PAGE  



You need to log in to post comments