Guitar Tabs, Chords and Lyrics
Major upgrade!! After one year development the new version of Chordie is now online! Please give feedback.


Mother Superior   Coheed and Cambria

 
 e|-----------------------------------------------|
 b|-----------------------------------------------|
 g|--------0---------------------0-0--------------|
 d|------3--3--------7---------7--7-----10/12-----|
 a|--3h5------5-5------8-7-7h8--------8-----------|
 e|-----------------------------------------------|
 e|-----------------------------------------|
 b|-----------------------------------------|
 g|----------------------------0------------|
 d|---------2--3b--2--0-----3---------------|
 a|--3--5----------------1--------1--0------|
 e|-------------------------------------3---|

 


 


 Chorus


 

 
 e|--0-----0------------|
 b|--3-----0------------|
 g|--2----\1---3--/5-\--|
 d|--0-----0---3--/5-\--| pause at 3 the first time then play 5 and slide
 a|--0---------1--/3-\--| 1 3
 e|--0------------------| half way there

 


 


 Verse


 

 
 e|-------------|
 b|-------------|
 g|-------------| move ur fingers up and down
 d|-3--7--7--5--|
 a|-3--5--7--3--|
 e|-1-----5-----|

 


 . . . .


 Bridge


 

 
 e|-------------|
 b|-------------|
 g|-3-/5--------|
 d|-3-/5--3--7--|
 a|-1-/3--3--5--|
 e|-------1-----|

 


 


 Bridge Part 2


 

 
 e|--------------|
 b|--------------|
 g|-3--3--/5--5--|
 d|-3--3--/5--5--|
 a|-1--1--/3--3--|
 e|--------------|

 


 


 Outro


 

 
 e|--------------------------|
 b|--------------------------|
 g|--------------------------|
 d|--8--5--8--5--8--5--3-----|
 a|--8--5--8--5--8--5--3--3--|
 e|--6--3--6--3--6--3--1--0--|


Important: The song above is NOT stored on the Chordie server. The original song is hosted at www.azchords.com. Chordie works as a search engine and provides on-the-fly formatting. Chordie does not index songs against artists'/composers' will. To remove this song please click here.

This song is displayed as text-only. Transposing and tuning is only available for chordpro-songs.
Rate #1 of 6 versions

Login - add to songbook

SHARE PAGE  




You need to log in to post comments