Guitar Tabs, Chords and Lyrics
Major upgrade!! After one year development the new version of Chordie is now online! Please give feedback.


Suffocate  Cold

Intro/verse
 
 ----------2-2---2-------------0-0---0-------------0-0---0-------------2-2---2h4--
 ------2-2-----2---2-2-----2-2-----2---2-2-----0-0-----0---0-0-----2-2-----2------
 --0-0-----------------3-3-------------------------------------0-0----------------
 ------------------------------------------3-3------------------------------------

Chorus/Bridge *strum these chords*
[Cadd9] [G] [Am]  
 
 --3-----3-----0--
 --3-----3-----1--
 --0-----0-----2--
 --2-----0-----2--
 --3-----2-----0--
 --x-----3-----0--

Outro
 
 -------------------------------------
 ---0-------------0----------------0--
 -----2---------2---2------------2----
 -------2-----2-------2--------2------
 -0-------0-------------0----0--------
 -----------0-------------0-----------

Intro/Verse - 5x
Chorus/Bridge - 2x
Intro/Verse - 3x
Chorus/Bridge - 12x
Outro - 1x

Important: The song above is NOT stored on the Chordie server. The original song is hosted at www.azchords.com. Chordie works as a search engine and provides on-the-fly formatting. Chordie does not index songs against artists'/composers' will. To remove this song please click here.

Text color:
Chord color:
Chord grids: 
Font size:    
Page size: 

Am Cadd9 G
Rate #1 of 3 versions

Jango Player

Login - add to songbook

SHARE PAGE  




You need to log in to post comments