Guitar Tabs, Chords and Lyrics
Major upgrade!! After one year development the new version of Chordie is now online! Please give feedback.


Charlie Brown  Coldplay

Capo 3rd fret
[Intro] (x4)
 
 e|-------3---3------3--------3---3-----3---3---------------------------------|
 B|---1s3---3---0h1-----1p0-----0-----0---0------------2-------2-------2------|
 G|-----------------------------------------------0h2-----0h2-----0h2---------|
 D|---------------------------------------------------------------------------|
 A|---------------------------------------------------------------------------|
 E|---------------------------------------------------------------------------|
 e|---------------------------------------------------------------------------|
 B|----------------------2-------2-------2------------------------------------|
 G|----2----0-------0h2-----0h2-----0h2------2----0---------------------------|
 D|-------------2-------------------------------------------------------------|
 A|---------------------------------------------------------------------------|
 E|---------------------------------------------------------------------------|

[Verse 1] 
[Em] I sto[C]le the [G]key
I took a [Em]car downtown where the los[C]t boys meet
I took a ca[G]r downtown and to[Am]ok what they offered me[Em]
To s[C]et me f[G]ree
I saw the l[Em]ights go down at the e[C]nd of the scene
I saw the li[G]ghts go down and they're s[Am]tanding in front of me
[Interlude] 
 
 e|-------3---3------3--------3---3-----3---3---------------------------------|
 B|---1s3---3---0h1-----1p0-----0-----0---0------------2-------2-------2------|
 G|-----------------------------------------------0h2-----0h2-----0h2---------|
 D|---------------------------------------------------------------------------|
 A|---------------------------------------------------------------------------|
 E|---------------------------------------------------------------------------|
 e|---------------------------------------------------------------------------|
 B|----------------------2-------2-------2------------------------------------|
 G|----2----0-------0h2-----0h2-----0h2------2----0---------------------------|
 D|-------------2-------------------------------------------------------------|
 A|---------------------------------------------------------------------------|
 E|---------------------------------------------------------------------------|

[Verse 2] 
[Em] In my sca[C]recrow d[G]reams
When they sma[Em]shed my heart into smit[C]hereens
I'll be a [G]bright red rose come b[Am]ursting the concrete[Em]
Be the ca[C]rtoon he[G]art
[Pre-Cborus] 
[C]Light a fire from a spark
[D]Light a fire, a flame in my [C]heart
[Cborus] 
We'll run w[C]ild
We'll be glowing in the d[Em]ark
[Interlude] (x2)
 
 e|-------3---3------3--------3---3-----3---3---------------------------------|
 B|---1s3---3---0h1-----1p0-----0-----0---0------------2-------2-------2------|
 G|-----------------------------------------------0h2-----0h2-----0h2---------|
 D|---------------------------------------------------------------------------|
 A|---------------------------------------------------------------------------|
 E|---------------------------------------------------------------------------|
 e|---------------------------------------------------------------------------|
 B|----------------------2-------2-------2------------------------------------|
 G|----2----0-------0h2-----0h2-----0h2------2----0---------------------------|
 D|-------------2-------------------------------------------------------------|
 A|---------------------------------------------------------------------------|
 E|---------------------------------------------------------------------------|

[Bridge] 
All the b[D]oys, all the girls
All that m[C]atters in the w[G]orld
All the b[D]oys, all the girls
All the m[C]adness that oc[G]curs
All the h[D]ighs, all the lows
As the R[C]oom is spinning Oh
[Cborus] 
[C]We'll run wild
We'll start glowing in the[Em] dark
[Interlude] (x4)
 
 e|-------3---3------3--------3---3-----3---3---------------------------------|
 B|---1s3---3---0h1-----1p0-----0-----0---0------------2-------2-------2------|
 G|-----------------------------------------------0h2-----0h2-----0h2---------|
 D|---------------------------------------------------------------------------|
 A|---------------------------------------------------------------------------|
 E|---------------------------------------------------------------------------|
 e|---------------------------------------------------------------------------|
 B|----------------------2-------2-------2------------------------------------|
 G|----2----0-------0h2-----0h2-----0h2------2----0---------------------------|
 D|-------------2-------------------------------------------------------------|
 A|---------------------------------------------------------------------------|
 E|---------------------------------------------------------------------------|

[Outro] 
S[C]o we saw an innocent liar
We'll be glowing in the d[G]ark'

Important: The song above is NOT stored on the Chordie server. The original song is hosted at www.azchords.com. Chordie works as a search engine and provides on-the-fly formatting. Chordie does not index songs against artists'/composers' will. To remove this song please click here.

Text color:
Chord color:
Chord grids: 
Font size:    
Page size: 

Am C D Em G
Rate #1 of 14 versions

Jango Player

Login - add to songbook

SHARE PAGE  




You need to log in to post comments