Guitar Tabs, Chords and Lyrics
Major upgrade!! After one year development the new version of Chordie is now online! Please give feedback.


Fun  Coldplay

(Intro & verses)
S S S S S S S S S S S E S S S S S S S S S E E S S S S S S S
 
 E||----------------------|------0---0---0---0---0------0---|------0---0----------0---0-------|
 B||--------------------0-|--1-3-------1-------0------3---0-|--1-3-------0------1---------3-0-|
 G||----------------------|--------2-------0--------0-------|--------0------2-----------2-----|
 D||----------------------|---------------------------------|-----------------------3---------|
 A||----------------------|---------------------------------|---------------------------------|
 E||----------------------|---------------------------------|---------------------------------|

S S S S S S S S S S E S S S S S S S S S E E S S S S S S S
 
 ------0---0---0---0---0------0---|------0---0----------0---0-------|
 --1-3-------1-------0------3---0-|--1-3-------0------1---------3-1-|
 --------2-------0--------0-------|--------0------2-----------2-----|
 ---------------------------------|-----------------------3---------|
 ---------------------------------|---------------------------------|
 ---------------------------------|---------------------------------|

S S S S S S S S S S E S S S S S S S E S S S S E S S S S S S S
 
 ----0-1---1---1---1---1------1-1-|--0-----------0-------0-------0---|
 --3---------1-------1----0-3-----|----1-------1-------1-------1---1-|
 --------2-------0----------------|------0-0-------2-------2-2-------|
 ---------------------------------|----------------------------------|
 ---------------------------------|----------------------------------|
 ---------------------------------|----------------------------------|

S S S S S S S S S S E S S S S S S S E S S S S E S S S S S S S
 
 ----0-1---1---1---1---1------1-1-|--0-----------0-------0-------0---||
 --3---------1-------1----0-3-----|----1-------1-------1-------1---1-||
 --------2-------0----------------|------0-0-------2-------2-2-------||
 ---------------------------------|----------------------------------||
 ---------------------------------|----------------------------------||
 ---------------------------------|----------------------------------||

(Chords, played during the entire song)
|[F]1 & e + 2 [G]& e + 3 & e[C/E] + 4 & e +[F] |1 & e + 2 & e + 3 & e + 4 & e + |
|D D D U U U U D U D U |D D D U U U U D U D U |
[F] [G] [C/E] [F]  
 
 |--1--1--1-1---3---3---3-3-3-3-3-|--0--0--0-0---1---1---1-1-1-1-1-|
 |--1--1--1-1---0---0---0-0-0-0-0-|--1--1--1-1---1---1---1-1-1-1-1-|
 |--2--2--2-2---0---0---0-0-0-0-0-|--0--0--0-0---2---2---2-2-2-2-2-|
 |--3--3--3-3---0---0---0-0-0-0-0-|--2--2--2-2---3---3---3-3-3-3-3-|
 |--3--3--3-3---2---2---2-2-2-2-2-|--x--x--x-x---3---3---3-3-3-3-3-|
 |--1--1--1-1---3---3---3-3-3-3-3-|--0--0--0-0---1---1---1-1-1-1-1-|

Played at the end:
[F] [F] [C/E] [F]  
 
 --20-20-20-20-20-20-20-20-20-19-19-19-19-19-19-19-|--15-15-15-15-15-15-15-17-17-17-17-17-17-17-17-17-|
 --------------------------------------------------|--------------------------------------------------|
 --------------------------------------------------|--------------------------------------------------|
 --------------------------------------------------|--------------------------------------------------|
 --------------------------------------------------|--------------------------------------------------|
 --------------------------------------------------|--------------------------------------------------|

[F] [F] [C/E] [F]  
 
 --20-20-20-20-20-20-20-19-19-19-19-19-19-19-19-19-|--15-15-15-15-15----15-17-17-17-17-17-17-17-17-17-|
 --------------------------------------------------|-----------------17-------------------------------|
 --------------------------------------------------|--------------------------------------------------|
 --------------------------------------------------|--------------------------------------------------|
 --------------------------------------------------|--------------------------------------------------|
 --------------------------------------------------|--------------------------------------------------|


Important: The song above is NOT stored on the Chordie server. The original song is hosted at www.azchords.com. Chordie works as a search engine and provides on-the-fly formatting. Chordie does not index songs against artists'/composers' will. To remove this song please click here.

Text color:
Chord color:
Chord grids: 
Font size:    
Page size: 

C/E F G
Rate #1 of 3 versions

Jango Player

Login - add to songbook

SHARE PAGE  



You need to log in to post comments