Guitar Tabs, Chords and Lyrics
Server problems seems to be fixed. Chordie has been experiencing problems with songs disappearing. These issues now seems to be fixed, but still verifying the fix. If you find anything strange, please email admin@chordie.com.


Adored  Collective Soul

There are two guitars playing in the song. this is the tab for one of them.
Capo on 2nd fret!
Intro and verse:
 
 e|----------------------------------------------------|
 B|---------3-----------3------------0-----------3-----|
 G|------0-----0-----0-----0------0----0------2----2---|
 D|----------------------------------------0-----------|
 A|---2-----------3------------------------------------|
 E|----------------------------3-----------------------|X6

Pre Chorus whole thing X2
play the last part twice:
 
 e|------------------------------------------------------------------|
 B|-----3---------------------3---------------------3----------------|
 G|---0---0----0-----0-----0-----0----0---0------2-----2-----2---2---|
 D|-------------------------------------------0-----------0----0-----|
 A|-3--------3----3-----2----------2----2----------------------------|
 E|------------------------------------------------------------------|
 |-----------------------|X2 

Chorus X2 and 2nd time play the last part:
[Em] [G] [D] [Am] [C]  
 
 e|------------------------------------------------------------------|-----------------|
 B|-----0----------------3---------------3---------------1-----------|-----1-----------|
 G|---0---0---0---0----0---0---0---0---2---2---2---2---2---2---2---2-|---0---0---0---0-|
 D|-2-------2---2----0-------0---0---0-------0---0---2-------2---2---|---------2---2---|
 A|------------------------------------------------------------------|-3---------------|
 E|------------------------------------------------------------------|-----------------|

|2nd time
Verse 2 same as Vesre 1
Pre Chorus
Chorus Same
Bridge: guitar distorted with an effect:
S[G]he said she was t[D]ired of
W[G]atching me[D] just w[C]ilt and bleed
S[G]he said I'm like J[D]esus
I[G] save tho[D]se who do [C]believe
[C]Do you, do you believe?
Intro x2
Pre Chorus
Chorus until end of song and end on G
That's it. Enjoy and add comments if anything's off:-)

Important: The song above is NOT stored on the Chordie server. The original song is hosted at www.azchords.com. Chordie works as a search engine and provides on-the-fly formatting. Chordie does not index songs against artists'/composers' will. To remove this song please click here.

Text color:
Chord color:
Chord grids: 
Font size:    
Page size: 

Am C D Em G
Rate #1 of 6 versions

Jango Player

Login - add to songbook

SHARE PAGE  




You need to log in to post comments