Guitar Tabs, Chords and Lyrics
Server problems seems to be fixed. Chordie has been experiencing problems with songs disappearing. These issues now seems to be fixed, but still verifying the fix. If you find anything strange, please email admin@chordie.com.


After All  Collective Soul

PLEASE NOTE: INTERPRETATION ONLY
 
 ---------------------------------------------------------------------------------------------------------------------------------

Chords used: (in the form EADBGE)
C X32010
[F]Abm 355X[133211]XX
C#m 3355XX
Intro:
C and F back and forth
Verse:
[C]Be still to lose
Every colour fro[F]m the sky
Then crawl as [C]a child
While the shadows burn[F] their eyes
We know[Abm]
There's (some words)[F]
Chorus:
And late[C]ly
It seems we've been chasing (some words)[F]
Or maybe[C]
Something means nothing here after all[F]
Verse:
[C]Whispers are now screams
This conclu[F]sion never ends
My pride[C]
With your kiss
Even angels[F] can't defend
We know[Abm]
We're running head on into our confusion[F]
Chorus:
And l[C]ately
It seems we've been chasing (some words)[F]
Or ma[C]ybe
Something means nothing here after all[F]
after all
Bridge: (not really sure about this part)
Still [C#]we hide
Safe behind these crumbled walls[F]
Cause we know[C#]
There's nothing more h[F]ere after all
Mini solo:
 
 E-------------------------------------------------------------------------------------------------------------------------------
 B-------------------------------------------------------------------------------------------------------------------------------
 G-- 10--9------------------------------------------10--9--------10--9--------------10--12--14--12--16-17----------
 D-----------10-----------------------------------------------------------------------------------------------------------------
 A----------------10--8---7----------------------------------10-----------10--8--7------------------------------------------
 E------------------------------8--3--1--0--1--8------------------------------------------------------------------------------

We k[Abm]now
There's no longer (some words)[F]
Chorus:
And latel[C]y
It seems we've been chasing (some words)[F]
Or mayb[C]e
Something means nothing here after all[F]
After all
Scale:
 
 E-----------------------------------------------------------------------
 B----------------------------------------------------------------------
 G--10--9------------------------------------------------------------
 D-----------10------------------------------------------------------
 A----------------10--8--7------------------------------------------
 E------------------------------8--3--1--0--1s--8----------------

repeat 4 times
and there ya have it= enjoy!

Important: The song above is NOT stored on the Chordie server. The original song is hosted at www.azchords.com. Chordie works as a search engine and provides on-the-fly formatting. Chordie does not index songs against artists'/composers' will. To remove this song please click here.

Text color:
Chord color:
Chord grids: 
Font size:    
Page size: 

Abm C C# F
Rate #1 of 1 versions

Jango Player

Login - add to songbook

SHARE PAGE  



You need to log in to post comments