Guitar Tabs, Chords and Lyrics
Server problems seems to be fixed. Chordie has been experiencing problems with songs disappearing. These issues now seems to be fixed, but still verifying the fix. If you find anything strange, please email admin@chordie.com.


You Know It   Colony House

 
 Eb|---------------------------------|---------------------------------|
 Bb|-----------------9-9-9-9-9-------|-----------------9-9-9-9-9-------|
 Gb|-----------------9-9-9-9-9-------|-----------------9-9-9-9-9-------|
 Db|-----------------9-9-9-9-9-------|-----------------9-9-9-9-9-------|
 Ab|-----------------7-7-7-7-7-------|-----------------7-7-7-7-7-------|
 Eb|---------------------------------|---------------------------------|
 Eb|---------------------------------|---------------------------------|
 Bb|-9-9-9-9-9-------9-9-9-9-9-------|-9-9-9-9-9-9-9-9-9-9-9-9-9-9-9-9-|
 Gb|-9-9-9-9-9-------9-9-9-9-9-------|-9-9-9-9-9-9-9-9-9-9-9-9-9-9-9-9-|
 Db|-9-9-9-9-9-------9-9-9-9-9-------|-9-9-9-9-9-9-9-9-9-9-9-9-9-9-9-9-|
 Ab|-7-7-7-7-7-------7-7-7-7-7-------|-7-7-7-7-7-7-7-7-7-7-7-7-7-7-7-7-|
 Eb|---------------------------------|---------------------------------|
 Eb|-0-------------------------------|---------------------0------0----|
 Bb|-0-------------------------------|---------------------0------0----|
 Gb|-1-------------------------------|---------------------1------1----|
 Db|-2-------------------------------|---------------------2------2----| *this chord is a pickup
 Ab|-2-------------------------------|---------------------2------2----| into the next bar. Let the
 Eb|-0-------------------------------|---------------------0------0----| chord ring through all 4 bars here.

 


 


 [Verse] 


 

 
 Eb|---------------------------------|---------------------------------|
 Bb|---------------------------------|---------------------------------|
 Gb|---------------------------------|---------------------------------|
 Db|---------------------------------|---------------------------------|
 Ab|---------------------------------|---------------------------------|
 Eb|---------------------------------|---------------------------------|
 Eb|---------------------------------|---------------------------------|
 Bb|---------------------------------|---------------------------------|
 Gb|---------------------------------|---------------------------------|
 Db|---------------------------------|---------------------------------|
 Ab|---------------------------------|---------------------------------|
 Eb|---------------------------------|---------------------------------|
 Eb|---------------------------------|---------------------------------|
 Bb|---------------------------------|---------------------------------|
 Gb|-6-----6-----6-------6---6---6---|-8-----8-----8-------8---8---8---|
 Db|-7-----7-----7-------7---7---7---|-9-----9-----9-------9---9---9---|
 Ab|-7-----7-----7-------7---7---7---|-9-----9-----9-------9---9---9---|
 Eb|-5-----5-----5-------5---5---5---|-7-----7-----7-------7---7---7---|
 Eb|-0-------------------------------|---------------------0------0----|
 Bb|-0-------------------------------|---------------------0------0----|
 Gb|-1-------------------------------|---------------------1------1----|
 Db|-2-------------------------------|---------------------2------2----|
 Ab|-2-------------------------------|---------------------2------2----|
 Eb|-0-------------------------------|---------------------0------0----|

 


 


 [Cborus] 


 

 
 Eb|---------------------------------|---------------------------------|
 Bb|---------------------------------|---------------------------------|
 Gb|-6---6---6---6---6---6---6---6---|-6---6---6---6---6---6---6---6---|
 Db|-7---7---7---7---7---7---7---7---|-7---7---7---7---7---7---7---7---|
 Ab|-7---7---7---7---7---7---7---7---|-7---7---7---7---7---7---7---7---|
 Eb|-5---5---5---5---5---5---5---5---|-5---5---5---5---5---5---5---5---|
 Eb|---------------------------------|---------------------------------|
 Bb|---------------------------------|---------------------------------|
 Gb|-8---8---8---8---8---8---8---8---|-8---8---8---8---8---8---8---8---|
 Db|-9---9---9---9---9---9---9---9---|-9---9---9---9---9---9---9---9---|
 Ab|-9---9---9---9---9---9---9---9---|-9---9---9---9---9---9---9---9---|
 Eb|-7---7---7---7---7---7---7---7---|-7---7---7---7---7---7---7---7---|
 Eb|---------------------------------|---------------------------------|
 Bb|---------------------------------|---------------------------------|
 Gb|-1-----------1-------------------|-1-----------1-------------------|
 Db|-2-----------2-------------------|-2-----------2-------------------|
 Ab|-2-----------2-------------------|-2-----------2-------------------|
 Eb|-0-----------0-------------------|-0-----------0-------------------|
 Eb|---------------------------------|---------------------------------|
 Bb|---------------------------------|---------------------------------|
 Gb|---------9---------------9-------|---------9-----------9-----------|
 Db|---------9---------------9-------|---------9-----------9-----------|
 Ab|---------7---------------7-------|---------7-----------7-------7---|
 Eb|---------------------------------|---------------------------------|
 Eb|---------------------------------|-----------------------------0---|
 Bb|---------------------------------|-----------------------------0---|
 Gb|---------------------------------|-----------------------------1---|
 Db|---------------------------------|-----------------------------2---|
 Ab|---------6-------4-------2-------|-----------------------------2---|
 Eb|---------------------------------|-4---2---0---0---------------0---|

 


 


 [Verse] 


 

 
 Eb|---------------------------------|---------------------------------|
 Bb|---------------------------------|---------------------------------|
 Gb|---------------------------------|---------------------------------|
 Db|---------------------------------|---------------------------------|
 Ab|-----11--11--11--11--11--11--11--|-11--11--11--11--11--11--11--11--|
 Eb|---------------------------------|---------------------------------|
 Eb|---------------------------------|---------------------------------|
 Bb|---------------------------------|---------------------------------|
 Gb|---------------------------------|---------------------------------|
 Db|---------------------------------|---------------------------------|
 Ab|-11--11--11--11--11--11--11--11--|-11--11--11--11--11--------------|
 Eb|---------------------------------|---------------------------------|
 Eb|---------------------------------|---------------------------------|
 Bb|---------------------------------|---------------------------------|
 Gb|-6-----6-----6-------6---6---6---|-8-----8-----8-------8---8---8---|
 Db|-7-----7-----7-------7---7---7---|-9-----9-----9-------9---9---9---|
 Ab|-7-----7-----7-------7---7---7---|-9-----9-----9-------9---9---9---|
 Eb|-5-----5-----5-------5---5---5---|-7-----7-----7-------7---7---7---|
 Eb|---------------------------------|---------------------------------|
 Bb|---------------------------------|---------------------------------|
 Gb|---------------------------------|---------------------------------|
 Db|-2---2---2---2---2---2---2---2---|-2---2---2---2---2---2---2---2---|
 Ab|-2---2---2---2---2---2---2---2---|-2---2---2---2---2---2---2---2---|
 Eb|-0---0---0---0---0---0---0---0---|-0---0---0---0---0---0---0---0---|

 


 


 [Pre-Cborus] 


 

 
 Eb|---------------------------------|---------------------------------|
 Bb|---------------------------------|---------------------------------|
 Gb|---------------------------------|---------------------------------|
 Db|---------------------------------|---------------------------------|
 Ab|---------------------------------|---------------------------------|
 Eb|-2-----------2-------------------|-4-----------4-------------------|
 Eb|---------------------------------|---------------------------------|
 Bb|---------------------------------|---------------------------------|
 Gb|---------------------------------|---------------------------------|
 Db|---------------------------------|-9-----9-----9---9---------------|
 Ab|---------------------------------|-9-----9-----9---9---------------|
 Eb|-5-----------5-------------------|-7-----7-----7---7---------------|
 Eb|---------------------------------|---------------------------------|
 Bb|---------------------------------|---------------------------------|
 Gb|-6-------------------------------|---------------------------------|
 Db|-7-------------------------------|---------------------------------|
 Ab|-7-------------------------------|---------------------------------|
 Eb|-5-------------------------------|---------------------------------|
 Eb|---------------------------------|---------------------------------|
 Bb|---------------------------------|---------------------------------|
 Gb|-8-------------------------------|---------------------------------|
 Db|-9-------------------------------|---------------------------------|
 Ab|-9-------------------------------|---------------------------------|
 Eb|-7-------------------------------|---------------------------------|

 


 


 [Cborus] 


 

 
 Eb|---------------------------------|---------------------------------|
 Bb|---------------------------------|---------------------------------|
 Gb|-6---6---6---6---6---6---6---6---|-6---6---6---6---6---6---6---6---|
 Db|-7---7---7---7---7---7---7---7---|-7---7---7---7---7---7---7---7---|
 Ab|-7---7---7---7---7---7---7---7---|-7---7---7---7---7---7---7---7---|
 Eb|-5---5---5---5---5---5---5---5---|-5---5---5---5---5---5---5---5---|
 Eb|---------------------------------|---------------------------------|
 Bb|---------------------------------|---------------------------------|
 Gb|-8---8---8---8---8---8---8---8---|-8---8---8---8---8---8---8---8---|
 Db|-9---9---9---9---9---9---9---9---|-9---9---9---9---9---9---9---9---|
 Ab|-9---9---9---9---9---9---9---9---|-9---9---9---9---9---9---9---9---|
 Eb|-7---7---7---7---7---7---7---7---|-7---7---7---7---7---7---7---7---|
 Eb|---------------------------------|---------------------------------|
 Bb|---------------------------------|---------------------------------|
 Gb|-1-----------1-------------------|-1-----------1-------------------|
 Db|-2-----------2-------------------|-2-----------2-------------------|
 Ab|-2-----------2-------------------|-2-----------2-------------------|
 Eb|-0-----------0-------------------|-0-----------0-------------------|
 Eb|---------------------------------|---------------------------------|
 Bb|---------------------------------|---------------------------------|
 Gb|---------9---------------9-------|-----9---9---9---9---9---9---9---|
 Db|---------9---------------9-------|-----9---9---9---9---9---9---9---|
 Ab|---------7---------------7-------|-----7---7---7---7---7---7---7---|
 Eb|---------------------------------|---------------------------------|

 


 


 [Bridge] 


 

 
 Eb|---------------------------------|---------------------------------|
 Bb|---------------------------------|---------------------------------|
 Gb|-8-----------8-----------8---7---|-6-----------6-----------6---6---|
 Db|-9-----------9-----------9---8---|-7-----------7-----------7---7---|
 Ab|-9-----------9-----------9---8---|-7-----------7-----------7---7---|
 Eb|-7-----------7-----------7---6---|-5-----------5-----------5---5---|
 Eb|---------------------------------|---------------------------------|
 Bb|---------------------------------|---------------------------------|
 Gb|---------------------------------|---------------------------------|
 Db|-2---2---2---2---2---2---2---2---|-2---2---2---2---2---2---2---2---|
 Ab|-2---2---2---2---2---2---2---2---|-2---2---2---2---2---2---2---2---|
 Eb|-0---0---0---0---0---0---0---0---|-0---0---0---0---0---0---0---0---|
 Eb|---------------------------------|---------------------------------|
 Bb|---------------------------------|---------------------------------|
 Gb|-8-----------8-----------8---7---|-6-----------6-----------6---6---|
 Db|-9-----------9-----------9---8---|-7-----------7-----------7---7---|
 Ab|-9-----------9-----------9---8---|-7-----------7-----------7---7---|
 Eb|-7-----------7-----------7---6---|-5-----------5-----------5---5---|
 Eb|---------------------------------|---------------------------------|
 Bb|---------------------------------|---------------------------------|
 Gb|---------------------------------|---------------------------------|
 Db|-2-----------2-----------2-------|-----2-----------2---2---2---2---|
 Ab|-2-----------2-----------2-------|-----2-----------2---2---2---2---|
 Eb|-0-----------0-----------0-------|-----0-----------0---0---0---0---|
 Eb|---------------------------------|---------------------------------|
 Bb|---------------------------------|---------------------------------|
 Gb|-8-----------8-----------8---7---|-6-----------6-----------6---6---|
 Db|-9-----------9-----------9---8---|-7-----------7-----------7---7---|
 Ab|-9-----------9-----------9---8---|-7-----------7-----------7---7---|
 Eb|-7-----------7-----------7---6---|-5-----------5-----------5---5---|
 Eb|-4-------------------------------|-2-------------------------------|
 Bb|-5-------------------------------|-2-------------------------------|
 Gb|-6-------------------------------|-3-------------------------------|
 Db|-6-------------------------------|-4-------------------------------|
 Ab|-4-------------------------------|-4-------------------------------|
 Eb|---------------------------------|-2-------------------------------|
 Eb|---------------------------------|---------------------------------|
 Bb|---------------------------------|---------------------------------|
 Gb|---------------------------------|------------------------------13-|
 Db|-7---7---7---7---7---7---7---7---|-9-------9-------9---------------|
 Ab|-7---7---7---7---7---7---7---7---|-9-------9-------9---------------|
 Eb|-5---5---5---5---5---5---5---5---|-7-------7-------7---------------|

 


 


 [Solo] 


 

 
 Eb|---------------------------------|---------------------------------|
 Bb|---------------------------------|---------------------------------|
 Gb|-11--------------------------9---|------------------------------13-|
 Db|---------------------------------|-11------------------------------|
 Ab|---------------------------------|---------------------------------|
 Eb|---------------------------------|---------------------------------|
 Eb|---------------------------------|---------------------------------|
 Bb|---------------------------------|---------------------------------|
 Gb|-11--------------------------9---|---------------------------------|
 Db|---------------------------------|-9-------------------------------|
 Ab|---------------------------------|---------------------------------|
 Eb|---------------------------------|---------------------------------|
 Eb|---------------------------------|---------------------------------|
 Bb|---------------------------------|---------------------------------|
 Gb|-9---------------8---------------|-6-------------------------------|
 Db|---------------------------------|-----------------6---------------|
 Ab|---------------------------------|---------------------------------|
 Eb|---------------------------------|---------------------------------|
 Eb|---------------------------------|---------------------------------|
 Bb|---------------------------------|---------------------------------|
 Gb|-6-----4-----6---8-----6-----8---|-9-----8-----9---11-----------13-|
 Db|---------------------------------|---------------------------------|
 Ab|---------------------------------|---------------------------------|
 Eb|---------------------------------|---------------------------------|
 Eb|---------------------------------|---------------------------------|
 Bb|---------------------------------|-------------12--12--12--12------|
 Gb|-11--11--11--11--11--11--11--9---|------------------------------13-|
 Db|---------------------------------|-11--11--11----------------------|
 Ab|---------------------------------|---------------------------------|
 Eb|---------------------------------|---------------------------------|
 Eb|---------------------------------|---------------------------------|
 Bb|---------------------------------|-9---9---9---9---9---9---9---9---|
 Gb|-11--11--11--11--11--11--11--11--|-11b-11b-11b-11b-11b-11b-11b-11b-|
 Db|---------------------------------|---------------------------------|
 Ab|---------------------------------|---------------------------------|
 Eb|---------------------------------|---------------------------------|
 Eb|---------------------------------|---------------------------------|
 Bb|-17--17--17--17--16--16--16--16--|-14--14--14--14------------------|
 Gb|---------------------------------|-----------------13--13--13--13--|
 Db|---------------------------------|---------------------------------|
 Ab|---------------------------------|---------------------------------|
 Eb|---------------------------------|---------------------------------|
 Eb|---------------------------------|---------------------------------|
 Bb|-12--12--12--12--12--12--12--12--|-12--12--12--12--12--12--12--12--|
 Gb|---------------------------------|---------------------------------|
 Db|---------------------------------|---------------------------------|
 Ab|---------------------------------|---------------------------------|
 Eb|---------------------------------|---------------------------------|

 


 


 [Cborus] 


 

 
 Eb|---------------------------------|---------------------------------|
 Bb|---------------------------------|---------------------------------|
 Gb|-6---6---6---6---6---6---6---6---|-6---6---6---6---6---6---6---6---|
 Db|-7---7---7---7---7---7---7---7---|-7---7---7---7---7---7---7---7---|
 Ab|-7---7---7---7---7---7---7---7---|-7---7---7---7---7---7---7---7---|
 Eb|-5---5---5---5---5---5---5---5---|-5---5---5---5---5---5---5---5---|
 Eb|---------------------------------|---------------------------------|
 Bb|---------------------------------|---------------------------------|
 Gb|-8---8---8---8---8---8---8---8---|-8---8---8---8---8---8---8---8---|
 Db|-9---9---9---9---9---9---9---9---|-9---9---9---9---9---9---9---9---|
 Ab|-9---9---9---9---9---9---9---9---|-9---9---9---9---9---9---9---9---|
 Eb|-7---7---7---7---7---7---7---7---|-7---7---7---7---7---7---7---7---|

 


 


 [End] 


 

 
 Eb|---------------------------------|---------------------------------|
 Bb|---------------------------------|---------------------------------|
 Gb|-1-----------1-------------------|-1-----------1-------------------|
 Db|-2-----------2-------------------|-2-----------2-------------------|
 Ab|-2-----------2-------------------|-2-----------2-------------------|
 Eb|-0-----------0-------------------|-0-----------0-------------------|
 Eb|---------------------------------|---------------------------------|
 Bb|---------------------------------|---------------------------------|
 Gb|-9-----------9-------------------|-9-----------9-------------------|
 Db|-9-----------9-------------------|-9-----------9-------------------|
 Ab|-7-----------7-------------------|-7-----------7-------------------|
 Eb|---------------------------------|---------------------------------|
 Eb|---------------------------------|---------------------------------|
 Bb|---------------------------------|---------------------------------|
 Gb|-9---9---9---9---9---9---9---9---|-9---9---9---9---9---9---9---9---|
 Db|-9---9---9---9---9---9---9---9---|-9---9---9---9---9---9---9---9---|
 Ab|-7---7---7---7---7---7---7---7---|-7---7---7---7---7---7---7---7---|
 Eb|---------------------------------|---------------------------------|
 Eb|---------------------------------|---------------------------------|
 Bb|---------------------------------|---------------------------------|
 Gb|-9---9---9---9---9---9---9---9---|-9-------------------------------|
 Db|-9---9---9---9---9---9---9---9---|-9-------------------------------|
 Ab|-7---7---7---7---7---7---7---7---|-7-------------------------------|
 Eb|---------------------------------|---------------------------------| 


Important: The song above is NOT stored on the Chordie server. The original song is hosted at www.azchords.com. Chordie works as a search engine and provides on-the-fly formatting. Chordie does not index songs against artists'/composers' will. To remove this song please click here.

This song is displayed as text-only. Transposing and tuning is only available for chordpro-songs.
Rate #1 of 1 versions

Jango Player

Login - add to songbook

SHARE PAGE  




You need to log in to post comments