Guitar Tabs, Chords and Lyrics
Major upgrade!! After one year development the new version of Chordie is now online! Please give feedback.


Queen of Memphis  Confederate Railroad

(Intro)
Queen of Memphis Intro
Tuning / down 1 full step
[D] [G] [C] [F] [A] [D]  
 
 e|------------------------------------------------------|
 B|------------------------------------------------------|
 G|------------------------------------------------------|
 D|--------p-p-------7-----------------------------------|
 A|-----0-3-2-0---0--5--Strum D--------------------------|
 E|-0 2---------3----------------------------------------|

[BB]  
 
 e|------------------------------------------------------|
 B|------------------------------------------------------|
 G|------------------------------------------------------|
 D|--------p-p-------2-----------------------------------|
 A|-----0-3-2-0------0--Strum A--------------------------|
 E|-0-2---------3-0--------------------------------------|

[BB]  
 
 e|------------------------------------------------------|
 B|------------------------------------------------------|
 G|------------------------------------------------------|
 D|--------p-p-------------------------------------------|
 A|-----0-3-2-0---0--2--Strum E--------------------------|
 E|-0-2---------3----0-----------------------------------|

[BB]  
 
 e|------------------------------------------------------|
 B|------------------------------------------------------|
 G|------------------------------------------------------|
 D|--------p-p-------------------------------------------|
 A|-----0-3-2-0---0--2--Strum A--------------------------|
 E|-0-2---------3----0-----------------------------------|

[BB]  
 
 e|------------------------------------------------------|
 B|------------------------------------------------------|
 G|------------------------------------------------------|
 D|-7--5-------------------------------------------------|
 A|------7--5--------------------------------------------|
 E|-----------7------------------------------------------|

Bass walkdown
Tuning / down 1 full step
[D] [G] [C] [F] [A] [D]  
Intro w/Baritone Guitar.
Tab transcribed in this forum is in "G".
Tune down and change to "A"
Or/ Play dropped guitar in "A" / Regular tuned in "G"
Used Tab Symbols
_____________________
h = Hammer On
p = Pull Off
~ = Sustain
v = Vibrato
w = Wide Vibrato
b = Bend Up
hb = Bend Halfway
/ = Slide Up
\ = Slide Down
* = Trill
x = Muted Note
h = Harmonic
t = Right Hand Tap
: = Let Ring
_____________________

Important: The song above is NOT stored on the Chordie server. The original song is hosted at www.azchords.com. Chordie works as a search engine and provides on-the-fly formatting. Chordie does not index songs against artists'/composers' will. To remove this song please click here.

Text color:
Chord color:
Chord grids: 
Font size:    
Page size: 

A C D F G
Rate #1 of 5 versions

Login - add to songbook

SHARE PAGE  




You need to log in to post comments