Guitar Tabs, Chords and Lyrics
Server problems seems to be fixed. Chordie has been experiencing problems with songs disappearing. These issues now seems to be fixed, but still verifying the fix. If you find anything strange, please email admin@chordie.com.


Danny Boy  Conway Twitty

Gtr I (E A D G B E) - 'Joe Lewis - Electric Guitar (Capo 4th fret)'
Gtr II (E A D G B E) - 'Joe Lewis - Electric Guitar'
1st Verse
Freely Q=104
[G9] [C] [Cmaj7] [C9] [F] 
[4/4] Gtr I (El. Gtr. w/ capo 4th fret)
W H H W W
 
 |-^3--------|-------------|-----------|-^1----|
 |-^0--------|-^1----^0----|-^3--------|-^1----|
 |-^2--------|-^0----^0----|-^3--------|-^2----|
 |-^3--------|-^2----^2----|-^2--------|-^3----|
 |-----------|-^3----^3----|-^3--------|-------|
 |-^3--------|-------------|-----------|-^1----|

+W [C] W [Am] H [D7] H [Dm7] W
 
 |-(1)--------|-----------|-------^2----|-^1----|
 |-(1)--------|-^1--------|-^1----^1----|-^1----|
 |-(2)--------|-^0--------|-^2----^2----|-^2----|
 |-(3)--------|-^2--------|-^2----^0----|-^0----|
 |------------|-^3--------|-^0----------|-------|
 |-(1)--------|-----------|-------------|-------|

[G] H [F/G] H [C] H [Cmaj7] H [C9] W [F]Q Q Q Q
 
 |-------------|-------------|-^3--------|-------1-----|
 |-^0----------|-^1----^0----|-^3--------|-------3--1--|
 |-^0----^2----|-^0----^0----|-^3--------|-------2-----|
 |-^0----^3----|-^2----^2----|-^2--------|-------3-----|
 |-------------|-^3----^3----|-^3--------|----3--------|
 |-^3----^3----|-------------|-----------|-1-----------|

H [Am/D] H [Cmaj7] H. [Dm7]Q [Em7] H [Gsus4]Q Q
 
 |------------|----------1--|-^3----------||
 |------^1----|-^0-------1--|-^3----1--0--||
 |------^2----|-^0-------2--|-^0----0-----||
 |------^0----|-^2-------0--|-^2----0-----||
 |------------|-^3----------|-------------||
 |------------|-------------|-------3-----||

In time Q=172
[E]Gtr II (El. Gtr.)
E E E Q E Q E E E Q E Q E E E Q E Q q Q H
 
 |---------------|---------------|---------------|------------||
 |-0-0-0-0--0-0--|-0-0-0-0--0-0--|-0-0-0-0--0-0--|-0----------||
 |-1-1-1-1--1-1--|-1-1-1-1--1-1--|-1-1-1-1--1-1--|-1----------||
 |-2-2-2-2--2-2--|-2-2-2-2--2-2--|-2-2-2-2--2-2--|-2----------||
 |-2-2-2-2--2-2--|-2-2-2-2--2-2--|-2-2-2-2--2-2--|-2----------||
 |-0-0-0-0--0-0--|-0-0-0-0--0-0--|-0-0-0-0--0-0--|-0----------||

2nd & 3rd Verses
$
[E]q E E H q E E H q E E H q E E H
 
 |-0----0------|-0----0------|-0----0------|-0----0------|
 |-0----0------|-0----0------|-0----0------|-0----0------|
 |-1----1------|-1----1------|-1----1------|-1----1------|
 |-2----2------|-2----2------|-2----2------|-2----2------|
 |-------------|-------------|-------------|-------------|
 |-------------|-------------|-------------|-------------|

q E E H q E E H [B]q E E E E q q E E E E Q
 
 |-0----0------|-0----0------|-7--7-7---7-7--|-7--12-12-12-12-12---|
 |-0----0------|-0----0------|-7--7-7---7-7--|-7--12-12-12-12-12---|
 |-1----1------|-1----1------|-8--8-8---8-8--|-8-------------------|
 |-2----2------|-2----2------|-9--9-9---9-9--|-9-------------------|
 |-------------|-------------|---------------|---------------------|
 |-------------|-------------|---------------|---------------------|

[E]q E E H q E E H q E E H
 
 |-------------|-------------|-------------|
 |-0----0------|-0----0------|-0----0------|
 |-1----1------|-1----1------|-1----1------|
 |-2----2------|-2----2------|-2----2------|
 |-------------|-------------|-------------|
 |-------------|-------------|-------------|

q E E H q E E H [A] q Q [B] q Q
 
 |-------------|-12----12------|-12-----11-----|
 |-0----0------|-12----12------|-14-----12-----|
 |-1----1------|-13----13------|-14-----11-----|
 |-2----2------|-14----14------|-14------------|
 |-------------|---------------|---------------|
 |-------------|---------------|---------------|

[E]Q E E E E E E q Q H q E E Q q [A] H E E +Q
 
 |----12-12-12-12-12-12-|-12----------|-12----12----12--|-14b15----14-12-(12)---|
 |----12-12-12-12-12-12-|-12----------|-12----12----12--|-14b15----14-12-(12)---|
 |----13-13-13-13-13-13-|-13----------|-13----13----13--|-----------------------|
 |----------------------|-------------|-----------------|-----------------------|
 |----------------------|-------------|-----------------|-----------------------|
 |----------------------|-------------|-----------------|-----------------------|

Q [E] q q E E q E E H Q q E E Q [A] q E E H
 
 |----12------------|-12-------------|----12----12----|-12----12------|
 |----12--14--12----|-12--14-12------|----12----12----|-14----14------|
 |--------14--12h13-|-----14-13------|----13----13----|-14----14------|
 |------------------|----------------|----------------|---------------|
 |------------------|----------------|----------------|---------------|
 |------------------|----------------|----------------|---------------|

W [B] Q Q E. S E E [E] q E E H [A] q E E H
 
 |----------|-14b15--14b15--12--12-14-12-|-12----12------|-12----12------|
 |----------|-14b15--14b15--12--12-14-12-|-12----12------|-14----14------|
 |----------|----------------------------|-13----13------|-14----14------|
 |----------|----------------------------|---------------|---------------|
 |----------|----------------------------|---------------|---------------|
 |----------|----------------------------|---------------|---------------|

To Coda
[E] q E E H [C#m] q E E H [E] q E E H W
 
 |-12----12------|-12----12------|-12----12------|-------||
 |-12----12------|-14----14------|-12----12------|-------||
 |-13----13------|-13----13------|-13----13------|-------||
 |---------------|---------------|---------------|-------||
 |---------------|---------------|---------------|-------||
 |---------------|---------------|---------------|-------||

Guitar Solo
[E]  
[E] [E] [E] [E] [E] [E] [E] [E] [E] [E] [E] [E] [E] [E] [E] [E]  
 
 |---12-12-12-12-12-12-12-|-12-12-12-12-12-12-12-12-|
 |---12-12-12-12-12-12-12-|-12-12-12-12-12-12-12-12-|
 |------------------------|-------------------------|
 |------------------------|-------------------------|
 |------------------------|-------------------------|
 |------------------------|-------------------------|

Q E Q E E E E E E E E E E E
 
 |-12-----12-12-----12-12-12-|-12----12-12----12-12----12-12----12--|
 |-12-----12-12-----12-12-12-|-12----12-12----12-12----12-12----12--|
 |-14b16-----14b16-----------|-14b16----14b16----14b16----14b16-----|
 |---------------------------|--------------------------------------|
 |---------------------------|--------------------------------------|
 |---------------------------|--------------------------------------|

Q E E E E E E E E E E Q E E
 
 |-12-----12----12-------------|-------------12--14-12-|
 |-12-----12----12-14-12----12-|----14-12----12--------|
 |-14b16--14b16----14-12----12h|=13-14-12h13-----------|
 |-----------------------14----|-----------------------|
 |-----------------------------|-----------------------|
 |-----------------------------|-----------------------|

Q +Q E E E E Q E E E E E E
 
 |-14pb15r=(14)--12-14-12----|-12--12-12-12-----------|
 |-14pb15r=(14)--12-14-12-14-|-12--12-12-12-12-14-----|
 |------------------------14-|--------------13----13--|
 |---------------------------|------------------------|
 |---------------------------|------------------------|
 |---------------------------|------------------------|

[B] Q Q Q Q e E E E q q
 
 |----------------|---------15-17b19--17b19--|
 |-12--12--12-----|------17------------------|
 |-11--11--11-----|--------------------------|
 |----------------|-16-----------------------|
 |----------------|--------------------------|
 |----------------|--------------------------|

[E] q q q q E +E E Q E E E
 
 |-17b19--17b19--17b19--17b19--|-17pb19r(17)--------15-17-15--|
 |-----------------------------|-------------17-17------------|
 |-----------------------------|------------------------------|
 |-----------------------------|------------------------------|
 |-----------------------------|------------------------------|
 |-----------------------------|------------------------------|

Q Q a +E E E E
 
 |-17b18--17b18===17r(17)-15-------|
 |---------------------------17-17-|
 |---------------------------------|
 |---------------------------------|
 |---------------------------------|
 |---------------------------------|

+Q E S S E E q a Q q Q q
 
 |--------------------------|------------------------|
 |-(17)--17-15h17p15--------|-------------------/12--|
 |-------------------16-14--|-12h13------14b16-------|
 |--------------------------|--------14--------------|
 |--------------------------|------------------------|
 |--------------------------|------------------------|

D.S. al Coda
[A] a Q q [B] E E E E [E] E E q a E E E E Q Q Q Q
 
 |------------------------|-----------------12-------|--------12--12--||
 |--------14--14-12-------|-------12--------12-14-12-|--------12--12--||
 |-12h13------------12-12h|=13--------14s16----14-12-|----------------||
 |------------------------|----14--------------------|-14-------------||
 |------------------------|--------------------------|----------------||
 |------------------------|--------------------------|----------------||

Outro
&
[E] q E E H q E E E E Q q E E H
 
 |-12----12------|-12----12---12----|-12----12------|
 |-12----12------|-12----12---12----|-12----12------|
 |-13----13------|-13----13---------|-13----13------|
 |---------------|------------------|---------------|
 |---------------|------------------|---------------|
 |---------------|------------------|---------------|

[A] q E E H [B] q E E H [E] Q E E Q q
 
 |-12----12------|-11----11------|-/15--------------|
 |-14----14------|-12----12------|-/15----17----14--|
 |-14----14------|-11----11------|--------16----14--|
 |---------------|---------------|------------------|
 |---------------|---------------|------------------|
 |---------------|---------------|------------------|

q E E Q q q E E Q q q E E H
 
 |-------12----12--|-12----12----12--|-12----12\------*|
 |-12----12----12--|-12----12----12--|-12----12\------*|
 |-13--------------|-----------------|----------------*|
 |-----------------|-----------------|----------------*|
 |-----------------|-----------------|----------------*|
 |-----------------|-----------------|----------------*| 


Important: The song above is NOT stored on the Chordie server. The original song is hosted at www.azchords.com. Chordie works as a search engine and provides on-the-fly formatting. Chordie does not index songs against artists'/composers' will. To remove this song please click here.

Text color:
Chord color:
Chord grids: 
Font size:    
Page size: 

A Am Am/D B C C#m C9 Cmaj7 D7 Dm7 E Em7 F F/G G G9 Gsus4
Rate #1 of 2 versions

Jango Player

Login - add to songbook

SHARE PAGE  



You need to log in to post comments