Guitar Tabs, Chords and Lyrics
Server problems seems to be fixed. Chordie has been experiencing problems with songs disappearing. These issues now seems to be fixed, but still verifying the fix. If you find anything strange, please email admin@chordie.com.


Just Want to See  Cowboy Junkies

Sweet song by a reletively unknown Canadian band.
It's played on an electric with a slightly distorted tone.
[Em] [G] [C] [B]  
 
 --------------------------------------------|
 --------------------------------------------|
 ----------------------------0---------------|
 -2-2-----2-2---2-0---0-0-0--2---0h2-0-0-0-0-|
 -2-2-----2-2---2-2---2-2-2--3-x-0---0-3-2-0-|
 -0-0-x-x-0-0-x-0-3---3-3-3------------------|

Note: Sometimes, Michael hits the G string when playing this riff,
it's meant to played in a 'dirty' sort of way.
[D5]Tommy, are you ready, we [G]better head to town
[C]J.D.'s box is waiting to be [Am]lowered down
and you [F]know how he [D5]hates to be kept [Am]waiting 'round
G G G G (stacatto)
 
 -----------------------------------------|
 -----------------------------------------|
 -----------------------------------------|
 -----------------7-7b8-7-----5h7-5-------|
 -7---7-7----7-10-------------------7\1/2-|
 ---------10------------------------------|

(Slow bend while strumming)
 
 -----------------------------------------|
 -----------------------------------------|
 ----------------------------7-9-9-9-9b10-|
 -7h8p7-----------------------------------|
 --------8-7-----------10/7---------------|
 --------------8-7/10---------------------|

(Slow bend while strumming)
 
 ---------------|
 ---------10b11-|
 -7h9-9-9-9b10--|
 ---------------|
 ---------------|
 ---------------|

Order:
Verse riff x9
Chorus
Verse riff x7
Chorus
Solo
Verse riff x5
Chorus
End of E5

Important: The song above is NOT stored on the Chordie server. The original song is hosted at www.azchords.com. Chordie works as a search engine and provides on-the-fly formatting. Chordie does not index songs against artists'/composers' will. To remove this song please click here.

Text color:
Chord color:
Chord grids: 
Font size:    
Page size: 

Am B C D5 Em F G
Rate #1 of 1 versions

Login - add to songbook

SHARE PAGE  



You need to log in to post comments