Guitar Tabs, Chords and Lyrics
Server problems seems to be fixed. Chordie has been experiencing problems with songs disappearing. These issues now seems to be fixed, but still verifying the fix. If you find anything strange, please email admin@chordie.com.


Torches and Pitchforks  Cracker

For Verse:
[Am] [Am] [B/G] [C] [C] [C] [C]  
 
 E |-----------------------------------------------------------------|
 B |-------1-------1-------0-------0-------1-------1-------1-------1-|
 G |---2-------2-------0-------0-------0-------0-------0-------0-----|
 D |-----2-------2-------0-------0-------2-------2-------2-------2---|
 A |-0-------0-------2-------2-------3-------3-------3-------3-------|
 E |-----------------------------------------------------------------|
 E |--------------------------------------------------------------------|
 B |-------1-------1-------0-------0-------1-------1-------1-------1----|
 G |---2-------2-------0-------0-------0-------0-------0-------0--------|
 D |-----2-------2-------0-------0-------2-------2-------2-------2------|
 A |-0-------0--------------- -------3-------3-------3-------3----------|
 E |-----------------3-------3------------------------------------------|

Verses:
Am, B/G, C
Am, B/G, C, G
VERSE:
We will [Am]fight you [G]from the [C]mountains
And we will fight you in the streets
And we will fight you in the valleys
You cannot take what isn't yours
And we will fight your goons and lawyers
And we will fight your Pinkertons
And we will fight your bought off Congressmen
You cannot take what isn't yours
(CHORUS:)
 
 E |-------------------------------------------------|
 B |-------0-------0-------1-------1-------1-------1-|
 G |---0-------0-------0-------0-------2-------2-----|
 D |-----0-------0-------2-------2-------3-------3---|
 A |-----------------3-------3-------3-------3-------|
 E |-3-------3---------------------------------------|

So, Laaaa Dee Daaa da da
 
 E |-------------------------------------------------|
 B |-------1-------1-------0-------0-------0-------0-|
 G |---0-------0-------0-------0-------0-------0-----|
 D |-----2-------2-------0-------0-------0-------0---|
 A |-3-------3---------------------------------------|
 E |-----------------3-------3-------3-------3-------|

[da] [da] [da] [da] [da] [da] 
G, C, F
So la da da
[Da]La [da]da [da]da [da]da[da] [da] [da]
[Da] [da] [da] [da] [da] [da] [da]  
[Am]La da da[F] da da d[C]a da
VERSE
And we will take you from your mansions
We'll burn your towers to the ground
And you will reap the whirlwind that you've sown
You cannot take what isn't yours
(REPEAT CHORUS)
We will fight you from the mountains
And we will fight you in the streets
And we will fight you from the valleys
You cannot take what isn't yours

Important: The song above is NOT stored on the Chordie server. The original song is hosted at www.azchords.com. Chordie works as a search engine and provides on-the-fly formatting. Chordie does not index songs against artists'/composers' will. To remove this song please click here.

Text color:
Chord color:
Chord grids: 
Font size:    
Page size: 

Am B/G C Da F G
Rate #1 of 1 versions

Login - add to songbook

SHARE PAGE  




You need to log in to post comments