Guitar Tabs, Chords and Lyrics
Server problems seems to be fixed. Chordie has been experiencing problems with songs disappearing. These issues now seems to be fixed, but still verifying the fix. If you find anything strange, please email admin@chordie.com.


Carrion  Cradle of Filth

C R A D L E O F F I L T H
[-] 
C A R R I O N
DAMNATION AND A DAY
(c) Sony Records - 2003
Tune down one step, then Drop D (to C)
[C] [G] [C] [F] [A] [D] 
Tempo = 108 BPM
Time Signature = 4/4
 
 -----------------------------

PADDY MCMULLAN
Version 1.0
22nd February 2009
 
 -----------------------

Tablature Symbols Used:
P.M... - Palm Mute
p - Pull-Off
h - Hammer-On
(/) - Legato Slide (Blank space indicates length of slide)
\ - Slide Down to/Down From (Blank space indicates length of slide)
/ - Slide Up To/Up From (Blank space indicates length of slide)
( ) - Ghost Note/Tied Note/Implied Note
REST - Rest and sustain rest for duration of blank space
|_3_| - Triplet Notes
|___(1) - Ending 1/2/3 etc.
Intro: Guitars 1 & 2 with Heavy Distortion (Play once)
Guitar 2 rests for the first 2 bars
1 |_3| |__3__| |_3| |__3__| |_3| |__3__| |_3| |__3__|
 
 ||--------------------------------------------------------------|
 ||--------------------------------------------------------------|
 ||--------------------------------------------------------------|
 ||--2--2--2--2--2--2--2--2--2--2--2--2--2--2--2--2--2--2--2--2--|
 ||--0--0--0--0--0--0--0--0--0--0--0--0--0--0--0--0--0--0--0--0--|
 ||--------------------------------------------------------------|

P.M.......................................................
2 |_3| |__3__| |_3| |__3__| |3| |__3__| |__3__|
 
 |-----------------------------------------------------|
 |-----------------------------------------------------|
 |-----------------------------------------------------|
 |--5--5--5--5--5--5--5--5--5--5--6--6--6--6--5--3--5--|
 |--3--3--3--3--3--3--3--3--3--3--0--0--0--0--0--0--0--|
 |-----------------------------------------------------|

.................................................
3 |_3| |__3__| |_3| |__3__| |_3| |__3__| |_3| |__3__|
 
 |--------------------------------------------------------------|
 |--------------------------------------------------------------|
 |--------------------------------------------------------------|
 |--2--2--2--2--2--2--2--2--2--2--2--2--2--2--2--2--2--2--2--2--|
 |--0--0--0--0--0--0--0--0--0--0--0--0--0--0--0--0--0--0--0--0--|
 |--------------------------------------------------------------|

..........................................................
[4]  
 
 |--------------------------|
 |--------------------------|
 |--------------------------|
 |--5--6--------------2--3--|
 |--3--4--5--6--3--4--0--1--|
 |--------5--6--3--4--------|

5 |_3| |__3__| |_3| |__3__| |_3| |__3__| |_3| |__3__|
 
 |--------------------------------------------------------------|
 |--------------------------------------------------------------|
 |--------------------------------------------------------------|
 |--2--2--2--2--2--2--2--2--2--2--2--2--2--2--2--2--2--2--2--2--|
 |--0--0--0--0--0--0--0--0--0--0--0--0--0--0--0--0--0--0--0--0--|
 |--------------------------------------------------------------|

..........................................................
6 |_3| |__3__| |_3| |__3__| |3| |__3__| |__3__|
 
 |--------------------------------------------------------|
 |--------------------------------------------------------|
 |--------------------------------------------------------|
 |--5--5--5--5--5--5--5--5--5--5--6--6--6--6--6--5--3--5--|
 |--3--3--3--3--3--3--3--3--3--3--0--0--0--0--0--0--0--0--|
 |--------------------------------------------------------|

....................................................
7 |_3| |__3__| |_3| |__3__| |_3| |__3__| |_3| |__3__|
 
 |----------------------------------------------------------------|
 |----------------------------------------------------------------|
 |----------------------------------------------------------------|
 |--2--2--2--2--2--2-2--2--2--2--2--2--2--2--2--2--2--2--2--2--2--|
 |--0--0--0--0--0--0-0--0--0--0--0--0--0--0--0--0--0--0--0--0--0--|
 |----------------------------------------------------------------|

............................................................
8
 
 |--------------------------|
 |--------------------------|
 |--------------------------|
 |--5--6--------------2--3--|
 |--3--4--5--6--3--4--0--1--|
 |--------5--6--3--4--------|

9 |__3__| |__3__| |__3__| |__3__| |__3__| |__3__| |__3__| |__3__|
 
 |--------------------------------------------------------------------------|
 |--------------------------------------------------------------------------|
 |--------------------------------------------------------------------------|
 |--2--2--2--2--2--2--2--2--2--2--2--2--2--2--2--2--2--2--2--2--2--2--2--2--|
 |--0--0--0--0--0--0--0--0--0--0--0--0--0--0--0--0--0--0--0--0--0--0--0--0--|
 |--------------------------------------------------------------------------|

......................................................................
10 |__3__| |__3__| |__3__|
 
 |---------------------------------------|
 |---------------------------------------|
 |---------------------------------------|
 |--5----2--2--2--2--2--2--6----5--3--5--|
 |--3----0--0--0--0--0--0--0----0--0--0--|
 |---------------------------------------|

................
11 |__3__| |__3__| |__3__| |__3__| |__3__| |__3__|
 
 |-------------------------------------------------------------|
 |-------------------------------------------------------------|
 |-------------------------------------------------------------|
 |--2----2--2--2--2--2--2--2--2--2--2--2--2--2--2--2--2--2--2--|
 |--0----0--0--0--0--0--0--0--0--0--0--0--0--0--0--0--0--0--0--|
 |-------------------------------------------------------------|

....................................................
12 |__3__|
 
 |--------------------------------|
 |--------------------------------|
 |--------------------------------|
 |--5--6--------------2--2--2--3--|
 |--3--4--5--6--3--4--0--0--0--1--|
 |--------5--6--3--4--------------|

.......
[13] [14] [15]  
 
 |-------------------|----------------------|-------------------|
 |-------------------|----------------------|-------------------|
 |-------------------|----------------------|-------------------|
 |--2----------------|--5--------6----5--3--|--2----------------|
 |--0----------------|--3--------0----0--0--|--0----------------|
 |-------------------|----------------------|-------------------|

16 |__3__| |__3__| |__3__| |__3__|
 
 |--------------------------------------------------||
 |--------------------------------------------------||
 |--------------------------------------------------||
 |--5--5--5--6--------------------------2--2--2--3--||
 |--3--3--3--4--5--5--5--6--3--3--3--4--0--0--0--1--||
 |--------------5--5--5--6--3--3--3--4--------------||

....... ....... ....... .......
Verse: Guitars 1 & 2 (Play once)
Part 1: x 2
 
 ||----------------------------|--------------------------------------|
 ||----------------------------|--------------------------------------|
 ||----------------------------|--------------------------------------|
 ||----------------------------|--------------------------------------|
 ||--0------0--2--3------0--0--|--3--0--0--2--0--0--0--2--3--2--0--2--|
 ||--0------0--2--3------0--0--|--3--0--0--2--0--0--0--2--3--2--0--2--|

.... .... .... .... .... ....
|______________________________(1)
 
 |----------------------------|--------------------------------| |
 |----------------------------|--------------------------------| |
 |----------------------------|--------------------------------|*|
 |----------------------------|--------------------------------|*|
 |--0------0--2--3------0--0--|--3--0--0--2--0--0--2--8--7--6--| |
 |--0------0--2--3------0--0--|--3--0--0--2--0--0--2--8--7--6--| |

.... .... .... ....
|______________________________(2)
 
 |--------------------------------||
 |--------------------------------||
 |--------------------------------||
 |--------------------------------||
 |--3--0--0--2--0--0--2--9--8--7--||
 |--3--0--0--2--0--0--2--9--8--7--||

.... ....
Part 2: x 2
 
 ||-------------------------|-------------------------|
 ||-------------------------|-------------------------|
 ||-------------------------|-------------------------|
 ||--6----7----6--7--9--10--|--6----7----6--7--10--9--|
 ||--4----5----4--5--7--8---|--4----5----4--5--8---7--|
 ||-------------------------|-------------------------|
 |-------------------------|--------------------------------| |
 |-------------------------|--------------------------------| |
 |-------------------------|--------------------------------|*|
 |--6----7----6--7--9--10--|--13---12---11--15--14--13--14--|*|
 |--4----5----4--5--7--8---|--11---10---9---13--12--11--12--| |
 |-------------------------|--------------------------------| |

Pre-Chorus 1.1: Guitars 1 & 2 (Play twice)
 
 ||----------------------------|--------------------------------------|
 ||----------------------------|--------------------------------------|
 ||----------------------------|--------------------------------------|
 ||----------------------------|--------------------------------------|
 ||--0------0--2--3------0--0--|--3--0--0--2--0--0--0--2--3--2--0--2--|
 ||--0------0--2--3------0--0--|--3--0--0--2--0--0--0--2--3--2--0--2--|

.... .... .... .... .... ....
|_____________________________________________________________(1)
 
 |----------------------------|--------------------------------| |
 |----------------------------|--------------------------------| |
 |----------------------------|--------------------------------|*|
 |----------------------------|--------------------------------|*|
 |--0------0--2--3------0--0--|--3--0--0--2--0--0--2--8--7--6--| |
 |--0------0--2--3------0--0--|--3--0--0--2--0--0--2--8--7--6--| |

.... .... .... ....
|__________________________________________________________(2)
 
 |-----------------------------|-----------------------------||
 |--------------------R- -|--------------------R- -||
 |--------------------E- -|--------------------E- -||
 |--------------------S- -|--------------------S- -||
 |--3--0--0--2--0--0--T- -|--3--0--0--2--0--0--T- -||
 |--3--0--0--2--0--0-----------|--3--0--0--2--0--0-----------||

.... .... .... ....
Pre-Chorus 1.2: Guitars 3 & 4 with Heavy Distortion (Play once)
Rest for 4 bars
Guitar 3:
 
 ||------------------------------|-------------------------------------|
 ||----------10-9-10~~-----------|-------------------------------------|
 ||--7~~-------------------10-9--|--10--12-10-12--9-7-9--10-9-10--10-9-|
 ||------------------------------|-------------------------------------|
 ||------------------------------|-------------------------------------|
 ||------------------------------|-------------------------------------|

.... .....
 
 |-----------------------------------------------|
 |-----------------10h 11-10\8-10~~-8------------|
 |--10--9-7-9--7-9---------------------10-9-10~~-|
 |-----------------------------------------------|
 |-----------------------------------------------|
 |-----------------------------------------------|
 |-----------------17h 18-17\15-17~~-15-------------||----------------------||
 |---------------------------------------18-17-18~~-||-------R- -||
 |--10--9-7-9--7-9----------------------------------||-------E- -||
 |--------------------------------------------------||--x \--S- -||
 |--------------------------------------------------||--x \--T- -||
 |--------------------------------------------------||--x \-----------------||

Guitar 4:
 
 ||--------------------------|--------------------------------|
 ||--------------------------|--------------------------------|
 ||--------------------------|--------------------------------|
 ||--0------7-6-7------3--2--|--3--5--3--5--2-0-2--3-2-3--3-2-|
 ||--------------------------|--------------------------------|
 ||--------------------------|--------------------------------|

.... ....
 
 ----------------------------------------|
 ----------------------------------------|
 ----------------------------------------|
 --3--2-0-2--0-2-7h 8-7\5-7~~-5--3-2-3~~-|
 ----------------------------------------|
 ----------------------------------------|
 |----------------------------------------||----------------------||
 |----------------------------------------||-------R- -||
 |----------------------------------------||-------E- -||
 |--3--2-0-2--0-2-7h 8-7\5-7~~-5--3-2-3~~-||--x \--S- -||
 |----------------------------------------||--x \--T- -||
 |----------------------------------------||--x \-----------------||

All guitars rest for 4 bars
Chorus: Guitars 1 & 2 (Play twice)
Guitar 1:
 
 ||--------------------------------------------------|
 ||--------------------------------------------------|
 ||--------------------------------------------------|
 ||--6--6--6--6--6--6--6--6--7--7--7--7--7--7--7--7--|
 ||--4--4--4--4--4--4--4--4--5--5--5--5--5--5--5--5--|
 ||--------------------------------------------------|

..............................................
 
 |--------------------------------------------------| |
 |--------------------------------------------------| |
 |--------------------------------------------------|*|
 |--2--2--2--2--2--2--2--2--9--9--9--9--9--9--9--9--|*|
 |--0--0--0--0--0--0--0--0--7--7--7--7--7--7--7--7--| |
 |--------------------------------------------------| |

..............................................
Guitar 2:
 
 ||--------------------------------------------------|
 ||--------------------------------------------------|
 ||--------------------------------------------------|
 ||--11-11-11-11-11-11-11-11-11-11-11-11-11-11-11-11-|
 ||--11-11-11-11-11-11-11-11-12-12-12-12-12-12-12-12-|
 ||--------------------------------------------------|

...............................................
 
 |--------------------------------------------------| |
 |--------------------------------------------------| |
 |--------------------------------------------------|*|
 |--9--9--9--9--9--9--9--9--9--9--9--9--9--9--9--9--|*|
 |--7--7--7--7--7--7--7--7--11-11-11-11-11-11-11-11-| |
 |--------------------------------------------------| |

...............................................
Guitars 1 & 2 play the Intro from bar 9 to 12 twice, and then from bar 13 to 16
Guitars 1, 2, 3 & 4 play the Pre-Chorus once
Rest for 12 bars
Guitars 1 & 2 play Part 2 of the Verse once
Guitars 1, 2, 3 & 4 play the Pre-Chorus once
Rest for 4 bars
Guitars 1 & 2 play the Chorus twice
Outro: Guitars 1 & 2
The Outro consists of the following sections of the Intro:
Bars 9 - 12 x 3
Bar 12 x 2
End on the following:
 
 ||-------------||
 ||-----R- -||
 ||-----E- -||
 ||--2--S- -||
 ||--0--T- -||
 ||-------------||

[End]  
Tab summary: Intro x 1
Verse x 1
Pre-Chorus x 1
Chorus x 2
Intro:
Bars 9 - 12 x 2
Bars 13 - 16 x 1
Verse x 2
Pre-Chorus x 1
Verse (Part 2) x 1
Pre-Chorus x 1
Chorus x 2
Outro:
Intro bars 9 - 12 x 3
Intro bar 12 x 2
END

Important: The song above is NOT stored on the Chordie server. The original song is hosted at www.azchords.com. Chordie works as a search engine and provides on-the-fly formatting. Chordie does not index songs against artists'/composers' will. To remove this song please click here.

Text color:
Chord color:
Chord grids: 
Font size:    
Page size: 

A C D F G
Rate #1 of 1 versions

Jango Player

Login - add to songbook

SHARE PAGE  



You need to log in to post comments