Guitar Tabs, Chords and Lyrics
Server problems seems to be fixed. Chordie has been experiencing problems with songs disappearing. These issues now seems to be fixed, but still verifying the fix. If you find anything strange, please email admin@chordie.com.


Cemetery and Sundown   Cradle of Filth

 
 |----------------------------------------------------------|
 |----------------------------------------------------------|
 |7-7-7-10-10-----------------10~-10/9-9-10-10-9-10-9-------|
 |----------------7-7-7-7/8---------------------------------|
 |----------------------------------------------------------|
 |----------------------------------------------------------|
 |-------------------------------------------------------------------|
 |-------------------------------------------------------------------|
 |7-7-7-10-10---------------------10-10-10-10------------------------|
 |----------------7-7-7-7/8-10~-------------11-11-11-11-|12----------| [slide
 |-------------------------------------------------------------------| down]
 |-------------------------------------------------------------------|

 


 


 "Cemetery and Sundown"


 


 

 
 |-----------------|
 |-----9-----9-----|
 |-8-7---8-7---8-7-|
 |-----------------|
 |-----------------|
 |-----------------|
 |-------------------------------------------|
 |-------------------------------------------|
 |-------------------------------------------| repeat again but after the
 |-3---2-------3---2---3-5--3---2------------| ending of it add a slide
 |-3---2-------3---2---3-5--3---2--[pause]---| on 6th string 9th fret.
 |-1-0-0-0-0-0-1-0-0-0-1-3--1-0-0------------|

 


 * * * * * * * * *


 


 2nd Guitar is playing


 


 

 
 |-------------------------------|
 |-----9-----9--------9----9-----|
 |-8-7---8-7---8-7-8-7--8-7--8-7-| [repeat about 5 times or w/e]
 |-------------------------------|
 |-------------------------------|
 |-------------------------------|

 


 


 Im not really sure about this part. But it's as close as i can get.


 


 (1:07-1:32)


 

 
 |----------------------------------------------------|
 |----------------------------------------------------|
 |-8--7--5-5/-7-7---------8--7--5---------------------|
 |-8--7--5-5/-7-7-----7/--8--7--5-7-7-7-5-8-8-8-10----|
 |-6--5--3-3/-5-5-----7/--6--5--3-7-7-7-5-8-8-8-10----|
 |---0--0---------0-6-5/----0--0--5-5-5-3-6-6-6-8-----|

 


 * * * *


 


 Repeat Intro.


 


 At 3:06 He plays


 


 

 
 |----------------------------------------|
 |----------------------------------------|
 |-9------9-10------9-10------9-10-9-7-10-|
 |-9------9-10------9-10------9-10-9-7-10-|
 |-7-7777-7-8--7777-7-8--7777-7-8--7-5-8--|
 |----------------------------------------|

 


 **** **** ****


 [++++] [++++] [++++]  


 


 

 
 |----------------------------------------------------------|
 |----------------------------------------------------------|
 |-9------9-10------9-10-------9-10-9-10-12-----------------| Repeat all of this From
 |-9------9-10------9-10-------9-10-9-10-12- (3:06-3:32-|
 |-7-7777-7-8--7777-7-8--7777--7-8--7-8--10-----------------|
 |----------------------------------------------------------|

 


 **** **** ****


 [++++] [++++] [++++]  


 Then theres,


 

 
 |----------------------------------------------------|
 |----------------------------------------------------|
 |----------------------------------------------------|
 |-8------7------4--------8------7------11------------|
 |-8------7------4--------8------7------11------------|
 |-6-6666-5-5555-2-222222-6-6666-5-5555-9--999999-----|

 


 **** **** ****** **** **** ******


 [++++] [++++] [++++++] [++++] [++++] [++++++] 


 

 
 |----------------------------------------------|
 |----------------------------------------------|
 |----------------------------------------------|
 |-8------7------4--------8------7--------11----|
 |-8------7------4--------8------7--------11----|
 |-6-6666-5-5555-2-222222-6-6666-5-5555---9-----|

 


 **** **** ****** **** **** (8 X's)


 [++++] [++++] [++++++] [++++] [++++]  


 


 Then Repeat


 


 

 
 |----------------------------------------|
 |----------------------------------------|
 |-9------9-10------9-10------9-10-9-7-10-|
 |-9------9-10------9-10------9-10-9-7-10-|
 |-7-7777-7-8--7777-7-8--7777-7-8--7-5-8--|
 |----------------------------------------|

 


 **** **** ****


 [++++] [++++] [++++]  


 


 

 
 |----------------------------------------------------------|
 |----------------------------------------------------------|
 |-9------9-10------9-10-------9-10-9-10-12-----------------| Repeat all of this From
 |-9------9-10------9-10-------9-10-9-10-12- (3:45-3:58-|
 |-7-7777-7-8--7777-7-8--7777--7-8--7-8--10-----------------|
 |----------------------------------------------------------|


Important: The song above is NOT stored on the Chordie server. The original song is hosted at www.azchords.com. Chordie works as a search engine and provides on-the-fly formatting. Chordie does not index songs against artists'/composers' will. To remove this song please click here.

This song is displayed as text-only. Transposing and tuning is only available for chordpro-songs.
Rate #1 of 2 versions

Login - add to songbook

SHARE PAGE  



You need to log in to post comments