Guitar Tabs, Chords and Lyrics
Server problems seems to be fixed. Chordie has been experiencing problems with songs disappearing. These issues now seems to be fixed, but still verifying the fix. If you find anything strange, please email admin@chordie.com.


Dirge Inferno  Cradle of Filth

Dirge Inferno
[E] [E] [E] [E] [E] [E] [E] [E] [E] [E] [E] [E] [E] [E] [E] [E]  
 
 D||----------------------------|-------------------------------|
 A||----------------------------|-------------------------------|
 F||----------------------------|----------------------------7--|
 C||-----9--10-----9--10-----9--|------9--10--9-------9--10-----|
 G||--7---------7---------7-----|--/8------------/10------------|
 D||----------------------------|-------------------------------|

W
[E] [E] [E] [E] [E] [E] [E] [E] [E] [E] [E] [E] [E] [E] [E] [E]  
 
 ----------------------------|---------------------------------|
 ----------------------------|---------------------------------|
 ----------------------------|----------------------------<>9--|
 -----9--10-----9--10-----9--|------9--10--9-------9--10-------|
 --7---------7---------7-----|--/8------------/10--------------|
 ----------------------------|---------------------------------|

[E] [E] [E] [E] [E] [E] [E] [E] [E] [E] [E] [E] [E] [E] [E] [E]  
 
 ----------------------------|-------------------------------|
 ----------------------------|-------------------------------|
 ----------------------------|----------------------------7--|
 -----9--10-----9--10-----9--|------9--10--9-------9--10-----|
 --7---------7---------7-----|--/8------------/10------------|
 ----------------------------|-------------------------------|

W
[E] [E] [E] [E] [E] [E] [E] [E] [E] [E] [E] [E] [E] [E] [E] [E]  
 
 ----------------------------|---------------------------------|
 ----------------------------|---------------------------------|
 ----------------------------|----------------------------<>9--|
 -----9--10-----9--10-----9--|------9--10--9-------9--10-------|
 --7---------7---------7-----|--/8------------/10--------------|
 ----------------------------|---------------------------------|

T T T T T T T T T T T T T T T T T T T T T T T T T T T T T T T T
 
 --------------------------------------------------------------------------|
 --------------------------------------------------------------------------|
 --------------------------------------------------------------------------|
 ----------9-9-9-9-10-10-10-10---------9-9-9-9-10-10-10-10---------9-9-9-9-|
 --7-7-7-7---------------------7-7-7-7---------------------7-7-7-7---------|
 --------------------------------------------------------------------------|

T T T T T T T T T T T T T T T T T T T T T T T T T T T T T T T T
 
 ------------------------------------------------------------------------------|
 ------------------------------------------------------------------------------|
 ----------------------------------------------------------------------7-7-7-7-|
 ----------9-9-9-9-10-10-10-10-9-9-9-9-------------9-9-9-9-10-10-10-10---------|
 --8-8-8-8-----------------------------10-10-10-10-----------------------------|
 ------------------------------------------------------------------------------|

T T T T T T T T T T T T T T T T T T T T T T T T T T T T T T T T
 
 --------------------------------------------------------------------------|
 --------------------------------------------------------------------------|
 --------------------------------------------------------------------------|
 ----------9-9-9-9-10-10-10-10---------9-9-9-9-10-10-10-10---------9-9-9-9-|
 --7-7-7-7---------------------7-7-7-7---------------------7-7-7-7---------|
 --------------------------------------------------------------------------|

T T T T T T T T T T T T T T T T T T T T T T T T T T T T T T T T
 
 ------------------------------------------------------------------------------|
 ------------------------------------------------------------------------------|
 ----------------------------------------------------------------------9-9-9-9-|
 ----------9-9-9-9-10-10-10-10-9-9-9-9-------------9-9-9-9-10-10-10-10---------|
 --8-8-8-8-----------------------------10-10-10-10-----------------------------|
 ------------------------------------------------------------------------------|

T T T T T T T T T T T T T T T T T T T T T T T T T T T T T T T T
 
 --------------------------------------------------------------------------|
 --------------------------------------------------------------------------|
 --------------------------------------------------------------------------|
 ----------9-9-9-9-10-10-10-10---------9-9-9-9-10-10-10-10---------9-9-9-9-|
 --7-7-7-7---------------------7-7-7-7---------------------7-7-7-7---------|
 --------------------------------------------------------------------------|

T T T T T T T T T T T T T T T T T T T T T T T T T T T T T T T T
 
 ------------------------------------------------------------------------------|
 ------------------------------------------------------------------------------|
 ----------------------------------------------------------------------7-7-7-7-|
 ----------9-9-9-9-10-10-10-10-9-9-9-9-------------9-9-9-9-10-10-10-10---------|
 --8-8-8-8-----------------------------10-10-10-10-----------------------------|
 ------------------------------------------------------------------------------|

T T T T T T T T T T T T T T T T T T T T T T T T T T T T T T T T
 
 --------------------------------------------------------------------------|
 --------------------------------------------------------------------------|
 --------------------------------------------------------------------------|
 ----------9-9-9-9-10-10-10-10---------9-9-9-9-10-10-10-10---------9-9-9-9-|
 --7-7-7-7---------------------7-7-7-7---------------------7-7-7-7---------|
 --------------------------------------------------------------------------|

T T T T T T T T T T T T T T T T S E S E E
 
 ---------------------------------------------------|
 ---------------------------------------------------|
 ---------------------------------------------------|
 ----------9-9-9-9-10-10-10-10-9-9-9-9-7-6----------|
 --8-8-8-8-----------------------------5-4--6-5--4--|
 -------------------------------------------4-3--2--|

PM PM PM PM PM PM PM PM PM PM PM PM PM PM PM PM PM
E S E T T S T T S T T S T T S T T S T T
 
 -------------------------------------------------------------|
 -------------------------------------------------------------|
 -------------------------------------------------------------|
 -------------------------------------------------------------|
 --3----2-----------------------------------------------------|
 --1----0--0--0--0--0--0--0--0--0--0--0--0--0--0--0--0--0--0--|

PM PM PM PM PM PM PM PM PM PM PM PM PM
E S E T T S T T S S S S S S S S
 
 -------------------------------------------------|
 -------------------------------------------------|
 -------------------------------------------------|
 -------------------------------------------------|
 --3----2-----------------------------------------|
 --1----0--0--0--0--0--0--3--3--0--5--4--4--0--1--|

PM PM PM PM PM PM PM PM PM PM PM PM PM PM PM PM PM
E S E T T S T T S T T S T T S T T S T T
 
 -------------------------------------------------------------|
 -------------------------------------------------------------|
 -------------------------------------------------------------|
 -------------------------------------------------------------|
 --3----2-----------------------------------------------------|
 --1----0--0--0--0--0--0--0--0--0--0--0--0--0--0--0--0--0--0--|

PM PM PM PM PM PM PM PM PM PM PM PM PM
E S E T T S T T S S S S S S S S
 
 -------------------------------------------------|
 -------------------------------------------------|
 -------------------------------------------------|
 -------------------------------------------------|
 --3----2-----------------------------------------|
 --1----0--0--0--0--0--0--1--2--1--3--3--6--3--5--|

PM PM PM PM PM PM PM PM PM PM PM PM PM PM PM PM PM
E S E T T S T T S T T S T T S T T S T T
 
 -------------------------------------------------------------|
 -------------------------------------------------------------|
 -------------------------------------------------------------|
 -------------------------------------------------------------|
 --3----2-----------------------------------------------------|
 --1----0--0--0--0--0--0--0--0--0--0--0--0--0--0--0--0--0--0--|

PM PM PM PM PM PM PM PM PM PM PM PM PM
E S E T T S T T S S S S S S S S
 
 -------------------------------------------------|
 -------------------------------------------------|
 -------------------------------------------------|
 -------------------------------------------------|
 --3----2-----------------------------------------|
 --1----0--0--0--0--0--0--3--3--0--5--4--4--0--1--|

PM PM PM PM PM PM PM PM PM PM PM PM PM PM PM PM PM
E S E T T S T T S T T S T T S T T S T T
 
 -------------------------------------------------------------|
 -------------------------------------------------------------|
 -------------------------------------------------------------|
 -------------------------------------------------------------|
 --3----2-----------------------------------------------------|
 --1----0--0--0--0--0--0--0--0--0--0--0--0--0--0--0--0--0--0--|

PM PM PM PM PM PM PM PM PM PM PM PM PM
E S E T T S T T S S S S S S S S E E Q H
 
 -------------------------------------------------|-----------------------|
 -------------------------------------------------|-----------------------|
 -------------------------------------------------|-----------------------|
 -------------------------------------------------|--7--L\----------------|
 --3----2-----------------------------------------|--7--L\----------------|
 --1----0--0--0--0--0--0--1--2--1--3--3--6--3--5--|--5--L\----------------|
 -----------|-----------|
 -----------|-----------|
 -----------|-----------|
 -----------|-----------|
 -----------|-----------|
 -----------|-----------|

T T T T T T T T T T T T T T T T T T T T T T T T T T T T T T T T
 
 ------------------------------------------------------------------|
 ------------------------------------------------------------------|
 --6-6-6-6-5-5-5-5-6-6-6-6-8-8-8-8-9-9-9-9-8-8-8-8-6-6-6-6-8-8-8-8-|
 --4-4-4-4-3-3-3-3-4-4-4-4-6-6-6-6-7-7-7-7-6-6-6-6-4-4-4-4-6-6-6-6-|
 ------------------------------------------------------------------|
 ------------------------------------------------------------------|

T T T T T T T T T T T T T T T T T T T T T T T T T T T T T T T T
 
 ------------------------------------------------------------------|
 ------------------------------------------------------------------|
 ------------------------------------------------------------------|
 ----------5-5-5-5-7-7-7-7---------5-5-5-5-7-7-7-7-8-8-8-8---------|
 --0-0-0-0-----------------0-0-0-0-------------------------6-6-6-6-|
 ------------------------------------------------------------------|

T T T T T T T T T T T T T T T T E E E S S
 
 -----------------------------------------------|
 -----------------------------------------------|
 --6-6-6-6--------------------------------------|
 --4-4-4-4-5-5-5-5-5-5-5-5-5-5-5-5-6--5--3--5-3-|
 ----------3-3-3-3-3-3-3-3-3-3-3-3-4--3--1--3-1-|
 -----------------------------------------------|

E T T T T T T T T T T T T T T T T T T T T T T T T T T T T
 
 -------------------------------------------------------------|
 -------------------------------------------------------------|
 -------------------------------------------------------------|
 --2--5-5-5-5-7-7-7-7---------5-5-5-5-7-7-7-7-8-8-8-8---------|
 --0------------------0-0-0-0-------------------------6-6-6-6-|
 -------------------------------------------------------------|

T T T T T T T T T T T T T T T T T T T T T T T T T T T T T T T T
 
 ------------------------------------------------------------------|
 ------------------------------------------------------------------|
 --6-6-6-6-5-5-5-5-6-6-6-6-8-8-8-8-9-9-9-9-8-8-8-8-6-6-6-6-8-8-8-8-|
 --4-4-4-4-3-3-3-3-4-4-4-4-6-6-6-6-7-7-7-7-6-6-6-6-4-4-4-4-6-6-6-6-|
 ------------------------------------------------------------------|
 ------------------------------------------------------------------|

T T T T T T T T T T T T T T T T T T T T T T T T T T T T T T T T
 
 ------------------------------------------------------------------|
 ------------------------------------------------------------------|
 ------------------------------------------------------------------|
 ----------5-5-5-5-7-7-7-7---------5-5-5-5-7-7-7-7-8-8-8-8---------|
 --0-0-0-0-----------------0-0-0-0-------------------------6-6-6-6-|
 ------------------------------------------------------------------|

T T T T T T T T T T T T T T T T E E E S S
 
 -----------------------------------------------|
 -----------------------------------------------|
 --6-6-6-6--------------------------------------|
 --4-4-4-4-5-5-5-5-5-5-5-5-5-5-5-5-6--5--3--5-3-|
 ----------3-3-3-3-3-3-3-3-3-3-3-3-4--3--1--3-1-|
 -----------------------------------------------|

E T T T T T T T T T T T T T T T T T T T T T T T T T T T T
 
 -------------------------------------------------------------|
 -------------------------------------------------------------|
 -------------------------------------------------------------|
 --2--5-5-5-5-7-7-7-7---------5-5-5-5-7-7-7-7-8-8-8-8---------|
 --0------------------0-0-0-0-------------------------6-6-6-6-|
 -------------------------------------------------------------|

T T T T T T T T T T T T T T T T T T T T T T T T T T T T T T T T
 
 ------------------------------------------------------------------|
 ------------------------------------------------------------------|
 --6-6-6-6-5-5-5-5-6-6-6-6-8-8-8-8-9-9-9-9-8-8-8-8-6-6-6-6-8-8-8-8-|
 --4-4-4-4-3-3-3-3-4-4-4-4-6-6-6-6-7-7-7-7-6-6-6-6-4-4-4-4-6-6-6-6-|
 ------------------------------------------------------------------|
 ------------------------------------------------------------------|

PM PM PM PM PM
[E] [E] [E] [E] [E] [E] [E] [E] [E] [E] [E] [E] [E] [E] [E] [E]  
 
 --------------------------|--------------------------|
 --------------------------|--------------------------|
 --------------------------|--------------------------|
 -----5--6-----5--6-----5--|-----5--6--5-----5--6--8--|
 -----3--4-----3--4-----3--|-----3--4--3-----3--4--6--|
 --1--------1--------1-----|--1-----------1-----------|

PM PM PM PM
[E] [E] [E] [E] [E] [E] [E] [E] [E] [E] [E] [E] [E] [E] [E] [E]  
 
 --------------------------|--------------------------|
 --------------------------|--------------------------|
 --------------------------|--------------------------|
 -----5--6-----5--6-----5--|-----5--6--5-----6--5-----|
 -----3--4-----3--4-----3--|-----3--4--3--6--4--3--2--|
 --1--------1--------1-----|--1-----------4--------0--|

PM PM PM PM PM
[E] [E] [E] [E] [E] [E] [E] [E] [E] [E] [E] [E] [E] [E] [E] [E]  
 
 --------------------------|--------------------------|
 --------------------------|--------------------------|
 --------------------------|-----------------------3--|
 -----5--6-----5--6-----5--|-----5--6--5-----5--6--1--|
 -----3--4-----3--4-----3--|-----3--4--3-----3--4-----|
 --1--------1--------1-----|--1-----------1-----------|

PM PM PM PM
[E] [E] [E] [E] [E] [E] [E] [E] [E] [E] [E] [E] [E] [E] [E] [E]  
 
 --------------------------|--------------------------|
 --------------------------|--------------------------|
 --------------------------|--------------------------|
 -----5--6-----5--6-----5--|-----5--6--5-----6--5-----|
 -----3--4-----3--4-----3--|-----3--4--3--6--4--3--2--|
 --1--------1--------1-----|--1-----------4--------0--|

PM PM PM PM PM PM PM PM PM PM PM PM PM PM PM PM PM
E S E T T S T T S T T S T T S T T S T T
 
 -------------------------------------------------------------|
 -------------------------------------------------------------|
 -------------------------------------------------------------|
 -------------------------------------------------------------|
 --3----2-----------------------------------------------------|
 --1----0--0--0--0--0--0--0--0--0--0--0--0--0--0--0--0--0--0--|

PM PM PM PM PM PM PM PM PM PM PM PM PM
E S E T T S T T S S S S S S S S
 
 -------------------------------------------------|
 -------------------------------------------------|
 -------------------------------------------------|
 -------------------------------------------------|
 --3----2-----------------------------------------|
 --1----0--0--0--0--0--0--3--3--0--5--4--4--0--1--|

PM PM PM PM PM PM PM PM PM PM PM PM PM PM PM PM PM
E S E T T S T T S T T S T T S T T S T T
 
 -------------------------------------------------------------|
 -------------------------------------------------------------|
 -------------------------------------------------------------|
 -------------------------------------------------------------|
 --3----2-----------------------------------------------------|
 --1----0--0--0--0--0--0--0--0--0--0--0--0--0--0--0--0--0--0--|

PM PM PM PM PM PM PM PM PM PM PM PM PM
E S E T T S T T S S S S S S S S
 
 -------------------------------------------------|
 -------------------------------------------------|
 -------------------------------------------------|
 -------------------------------------------------|
 --3----2-----------------------------------------|
 --1----0--0--0--0--0--0--1--2--1--3--3--6--3--5--|

PM PM PM PM PM PM PM PM PM PM PM PM PM PM PM PM PM
E S E T T S T T S T T S T T S T T S T T
 
 -------------------------------------------------------------|
 -------------------------------------------------------------|
 -------------------------------------------------------------|
 -------------------------------------------------------------|
 --3----2-----------------------------------------------------|
 --1----0--0--0--0--0--0--0--0--0--0--0--0--0--0--0--0--0--0--|

PM PM PM PM PM PM PM PM PM PM PM PM PM
E S E T T S T T S S S S S S S S
 
 -------------------------------------------------|
 -------------------------------------------------|
 -------------------------------------------------|
 -------------------------------------------------|
 --3----2-----------------------------------------|
 --1----0--0--0--0--0--0--3--3--0--5--4--4--0--1--|

PM PM PM PM PM PM PM PM PM PM PM PM PM PM PM PM PM
E S E T T S T T S T T S T T S T T S T T
 
 -------------------------------------------------------------|
 -------------------------------------------------------------|
 -------------------------------------------------------------|
 -------------------------------------------------------------|
 --3----2-----------------------------------------------------|
 --1----0--0--0--0--0--0--0--0--0--0--0--0--0--0--0--0--0--0--|

PM PM PM PM PM PM PM PM PM PM PM PM PM
E S E T T S T T S S S S S S S S E E Q H
 
 -------------------------------------------------|-----------------------|
 -------------------------------------------------|-----------------------|
 -------------------------------------------------|-----------------------|
 -------------------------------------------------|--7--L\----------------|
 --3----2-----------------------------------------|--7--L\----------------|
 --1----0--0--0--0--0--0--1--2--1--3--3--6--3--5--|--5--L\----------------|
 -----------|-----------|
 -----------|-----------|
 -----------|-----------|
 -----------|-----------|
 -----------|-----------|
 -----------|-----------|

T T T T T T T T T T T T T T T T T T T T T T T T T T T T T T T T
 
 ------------------------------------------------------------------|
 ------------------------------------------------------------------|
 --6-6-6-6-5-5-5-5-6-6-6-6-8-8-8-8-9-9-9-9-8-8-8-8-6-6-6-6-8-8-8-8-|
 --4-4-4-4-3-3-3-3-4-4-4-4-6-6-6-6-7-7-7-7-6-6-6-6-4-4-4-4-6-6-6-6-|
 ------------------------------------------------------------------|
 ------------------------------------------------------------------|

T T T T T T T T T T T T T T T T T T T T T T T T T T T T T T T T
 
 ------------------------------------------------------------------|
 ------------------------------------------------------------------|
 ------------------------------------------------------------------|
 ----------5-5-5-5-7-7-7-7---------5-5-5-5-7-7-7-7-8-8-8-8---------|
 --0-0-0-0-----------------0-0-0-0-------------------------6-6-6-6-|
 ------------------------------------------------------------------|

T T T T T T T T T T T T T T T T E E E S S
 
 -----------------------------------------------|
 -----------------------------------------------|
 --6-6-6-6--------------------------------------|
 --4-4-4-4-5-5-5-5-5-5-5-5-5-5-5-5-6--5--3--5-3-|
 ----------3-3-3-3-3-3-3-3-3-3-3-3-4--3--1--3-1-|
 -----------------------------------------------|

E T T T T T T T T T T T T T T T T T T T T T T T T T T T T
 
 -------------------------------------------------------------|
 -------------------------------------------------------------|
 -------------------------------------------------------------|
 --2--5-5-5-5-7-7-7-7---------5-5-5-5-7-7-7-7-8-8-8-8---------|
 --0------------------0-0-0-0-------------------------6-6-6-6-|
 -------------------------------------------------------------|

T T T T T T T T T T T T T T T T T T T T T T T T T T T T T T T T
 
 ------------------------------------------------------------------|
 ------------------------------------------------------------------|
 --6-6-6-6-5-5-5-5-6-6-6-6-8-8-8-8-9-9-9-9-8-8-8-8-6-6-6-6-8-8-8-8-|
 --4-4-4-4-3-3-3-3-4-4-4-4-6-6-6-6-7-7-7-7-6-6-6-6-4-4-4-4-6-6-6-6-|
 ------------------------------------------------------------------|
 ------------------------------------------------------------------|

T T T T T T T T T T T T T T T T T T T T T T T T T T T T T T T T
 
 ------------------------------------------------------------------|
 ------------------------------------------------------------------|
 ------------------------------------------------------------------|
 ----------5-5-5-5-7-7-7-7---------5-5-5-5-7-7-7-7-8-8-8-8---------|
 --0-0-0-0-----------------0-0-0-0-------------------------6-6-6-6-|
 ------------------------------------------------------------------|

T T T T T T T T T T T T T T T T E E E S S
 
 -----------------------------------------------|
 -----------------------------------------------|
 --6-6-6-6--------------------------------------|
 --4-4-4-4-5-5-5-5-5-5-5-5-5-5-5-5-6--5--3--5-3-|
 ----------3-3-3-3-3-3-3-3-3-3-3-3-4--3--1--3-1-|
 -----------------------------------------------|

E T T T T T T T T T T T T T T T T T T T T T T T T T T T T
 
 -------------------------------------------------------------|
 -------------------------------------------------------------|
 -------------------------------------------------------------|
 --2--5-5-5-5-7-7-7-7---------5-5-5-5-7-7-7-7-8-8-8-8---------|
 --0------------------0-0-0-0-------------------------6-6-6-6-|
 -------------------------------------------------------------|

T T T T T T T T T T T T T T T T T T T T T T T T T T T T T T T T
 
 ------------------------------------------------------------------|
 ------------------------------------------------------------------|
 --6-6-6-6-5-5-5-5-6-6-6-6-8-8-8-8-9-9-9-9-8-8-8-8-6-6-6-6-8-8-8-8-|
 --4-4-4-4-3-3-3-3-4-4-4-4-6-6-6-6-7-7-7-7-6-6-6-6-4-4-4-4-6-6-6-6-|
 ------------------------------------------------------------------|
 ------------------------------------------------------------------|

PM PM PM PM PM
[E] [E] [E] [E] [E] [E] [E] [E] [E] [E] [E] [E] [E] [E] [E] [E]  
 
 --------------------------|--------------------------|
 --------------------------|--------------------------|
 --------------------------|-----------------------3--|
 -----5--6-----5--6-----5--|-----5--6--5-----5--6--1--|
 -----3--4-----3--4-----3--|-----3--4--3-----3--4-----|
 --1--------1--------1-----|--1-----------1-----------|

PM PM PM PM
[E] [E] [E] [E] [E] [E] [E] [E] [E] [E] [E] [E] [E] [E] [E] [E]  
 
 --------------------------|--------------------------|
 --------------------------|--------------------------|
 --------------------------|--------------------------|
 -----5--6-----5--6-----5--|-----5--6--5-----6--5-----|
 -----3--4-----3--4-----3--|-----3--4--3--6--4--3--2--|
 --1--------1--------1-----|--1-----------4--------0--|

PM PM PM PM PM
[E] [E] [E] [E] [E] [E] [E] [E] [E] [E] [E] [E] [E] [E] [E] [E]  
 
 --------------------------|--------------------------|
 --------------------------|--------------------------|
 --------------------------|-----------------------3--|
 -----5--6-----5--6-----5--|-----5--6--5-----5--6--1--|
 -----3--4-----3--4-----3--|-----3--4--3-----3--4-----|
 --1--------1--------1-----|--1-----------1-----------|

PM PM PM PM
[E] [E] [E] [E] [E] [E] [E] [E] [E] [E] [E] [E] [E] [E] [E] [E]  
 
 --------------------------|--------------------------|
 --------------------------|--------------------------|
 --------------------------|--------------------------|
 -----5--6-----5--6-----5--|-----5--6--5-----6--5-----|
 -----3--4-----3--4-----3--|-----3--4--3--6--4--3--2--|
 --1--------1--------1-----|--1-----------4--------0--|

[E] [E] [E] [E] [E] [E] [E] [E] [E] [E] [E] [E] [E] [E] [E] [E]  
 
 ----------------------------|-------------------------------|
 ----------------------------|-------------------------------|
 ----------------------------|----------------------------7--|
 -----9--10-----9--10-----9--|------9--10--9-------9--10-----|
 --7---------7---------7-----|--/8------------/10------------|
 ----------------------------|-------------------------------|

W
[E] [E] [E] [E] [E] [E] [E] [E] [E] [E] [E] [E] [E] [E] [E] [E]  
 
 ----------------------------|---------------------------------|
 ----------------------------|---------------------------------|
 ----------------------------|----------------------------<>9--|
 -----9--10-----9--10-----9--|------9--10--9-------9--10-------|
 --7---------7---------7-----|--/8------------/10--------------|
 ----------------------------|---------------------------------|

[E] [E] [E] [E] [E] [E] [E] [E] [E] [E] [E] [E] [E] [E] [E] [E]  
 
 ----------------------------|-------------------------------|
 ----------------------------|-------------------------------|
 ----------------------------|----------------------------7--|
 -----9--10-----9--10-----9--|------9--10--9-------9--10-----|
 --7---------7---------7-----|--/8------------/10------------|
 ----------------------------|-------------------------------|

W
[E] [E] [E] [E] [E] [E] [E] [E] [E] [E] [E] [E] [E] [E] [E] [E]  
 
 ----------------------------|---------------------------------|
 ----------------------------|---------------------------------|
 ----------------------------|----------------------------<>9--|
 -----9--10-----9--10-----9--|------9--10--9-------9--10-------|
 --7---------7---------7-----|--/8------------/10--------------|
 ----------------------------|---------------------------------|

T T T T T T T T T T T T T T T T T T T T T T T T T T T T T T T T
 
 --------------------------------------------------------------------------|
 --------------------------------------------------------------------------|
 --------------------------------------------------------------------------|
 ----------9-9-9-9-10-10-10-10---------9-9-9-9-10-10-10-10---------9-9-9-9-|
 --7-7-7-7---------------------7-7-7-7---------------------7-7-7-7---------|
 --------------------------------------------------------------------------|

T T T T T T T T T T T T T T T T T T T T T T T T T T T T T T T T
 
 ------------------------------------------------------------------------------|
 ------------------------------------------------------------------------------|
 ----------------------------------------------------------------------7-7-7-7-|
 ----------9-9-9-9-10-10-10-10-9-9-9-9-------------9-9-9-9-10-10-10-10---------|
 --8-8-8-8-----------------------------10-10-10-10-----------------------------|
 ------------------------------------------------------------------------------|

T T T T T T T T T T T T T T T T T T T T T T T T T T T T T T T T
 
 --------------------------------------------------------------------------|
 --------------------------------------------------------------------------|
 --------------------------------------------------------------------------|
 ----------9-9-9-9-10-10-10-10---------9-9-9-9-10-10-10-10---------9-9-9-9-|
 --7-7-7-7---------------------7-7-7-7---------------------7-7-7-7---------|
 --------------------------------------------------------------------------|

T T T T T T T T T T T T T T T T T T T T T T T T T T T T T T T T
 
 ------------------------------------------------------------------------------|
 ------------------------------------------------------------------------------|
 ----------------------------------------------------------------------9-9-9-9-|
 ----------9-9-9-9-10-10-10-10-9-9-9-9-------------9-9-9-9-10-10-10-10---------|
 --8-8-8-8-----------------------------10-10-10-10-----------------------------|
 ------------------------------------------------------------------------------|

T T T T T T T T T T T T T T T T T T T T T T T T T T T T T T T T
 
 --------------------------------------------------------------------------|
 --------------------------------------------------------------------------|
 --------------------------------------------------------------------------|
 ----------9-9-9-9-10-10-10-10---------9-9-9-9-10-10-10-10---------9-9-9-9-|
 --7-7-7-7---------------------7-7-7-7---------------------7-7-7-7---------|
 --------------------------------------------------------------------------|

T T T T T T T T T T T T T T T T T T T T T T T T T T T T T T T T
 
 ------------------------------------------------------------------------------|
 ------------------------------------------------------------------------------|
 ----------------------------------------------------------------------7-7-7-7-|
 ----------9-9-9-9-10-10-10-10-9-9-9-9-------------9-9-9-9-10-10-10-10---------|
 --8-8-8-8-----------------------------10-10-10-10-----------------------------|
 ------------------------------------------------------------------------------|

T T T T T T T T T T T T T T T T T T T T T T T T T T T T T T T T
 
 --------------------------------------------------------------------------|
 --------------------------------------------------------------------------|
 --------------------------------------------------------------------------|
 ----------9-9-9-9-10-10-10-10---------9-9-9-9-10-10-10-10---------9-9-9-9-|
 --7-7-7-7---------------------7-7-7-7---------------------7-7-7-7---------|
 --------------------------------------------------------------------------|

T T T T T T T T T T T T T T T T S E S E E
 
 ---------------------------------------------------|
 ---------------------------------------------------|
 ---------------------------------------------------|
 ----------9-9-9-9-10-10-10-10-9-9-9-9-7-6----------|
 --8-8-8-8-----------------------------5-4--6-5--4--|
 -------------------------------------------4-3--2--|

E E E S S E E E S S E E E E Q E E
 
 ----------------------------|-------------------------|
 ----------------------------|-------------------------|
 ----------------------------|-------------------------|
 --2--2--2--4-5-2--2--2--4-5-|--3--3--3--5--7----7--5--|
 --0--0--0--2-3-0--0--0--2-3-|--1--1--1--3--5----5--5--|
 ----------------------------|-------------------------|

E E E S S E E E S S E E E E E E E E
 
 ----------------------------|--------------------------|
 ----------------------------|--------------------------|
 ----------------------------|--------------------------|
 --2--2--2--4-5-2--2--2--4-5-|--7--5--8--7--9--8--------|
 --0--0--0--2-3-0--0--0--2-3-|--5--3--6--5--7--6--7-----|
 ----------------------------|--------------------5-----|

E E E S S E E E S S E E E E Q E E
 
 ----------------------------|-------------------------|
 ----------------------------|-------------------------|
 ----------------------------|-------------------------|
 --2--2--2--4-5-2--2--2--4-5-|--3--3--3--5--7----7--5--|
 --0--0--0--2-3-0--0--0--2-3-|--1--1--1--3--5----5--5--|
 ----------------------------|-------------------------|

E E E S S E E E S S E E E E E E E E
 
 ----------------------------|--------------------------|
 ----------------------------|--------------------------|
 ----------------------------|--------------------------|
 --2--2--2--4-5-2--2--2--4-5-|--7--5--8--7--9--8--------|
 --0--0--0--2-3-0--0--0--2-3-|--5--3--6--5--7--6--7-----|
 ----------------------------|--------------------5-----|

E E E S S E E E S S E E E E Q E E
 
 ----------------------------|-------------------------|
 ----------------------------|-------------------------|
 ----------------------------|-------------------------|
 --2--2--2--4-5-2--2--2--4-5-|--3--3--3--5--7----7--5--|
 --0--0--0--2-3-0--0--0--2-3-|--1--1--1--3--5----5--5--|
 ----------------------------|-------------------------|

E E E S S E E E S S E E E E E E E E
 
 ----------------------------|--------------------------|
 ----------------------------|--------------------------|
 ----------------------------|--------------------------|
 --2--2--2--4-5-2--2--2--4-5-|--7--5--8--7--9--8--------|
 --0--0--0--2-3-0--0--0--2-3-|--5--3--6--5--7--6--7-----|
 ----------------------------|--------------------5-----|

E E E S S E E E S S E E E E Q E E
 
 ----------------------------|-------------------------|
 ----------------------------|-------------------------|
 ----------------------------|-------------------------|
 --2--2--2--4-5-2--2--2--4-5-|--3--3--3--5--7----7--5--|
 --0--0--0--2-3-0--0--0--2-3-|--1--1--1--3--5----5--5--|
 ----------------------------|-------------------------|

E E E S S E E E S S E E E E E E E E
 
 ----------------------------|--------------------------|
 ----------------------------|--------------------------|
 ----------------------------|--------------------------|
 --2--2--2--4-5-2--2--2--4-5-|--7--5--8--7--9--8--------|
 --0--0--0--2-3-0--0--0--2-3-|--5--3--6--5--7--6--7-----|
 ----------------------------|--------------------5-----|

PM PM PM PM PM PM PM PM PM PM PM PM PM PM PM PM PM
E S E T T S T T S T T S T T S T T S T T
 
 -------------------------------------------------------------|
 -------------------------------------------------------------|
 -------------------------------------------------------------|
 -------------------------------------------------------------|
 --3----2-----------------------------------------------------|
 --1----0--0--0--0--0--0--0--0--0--0--0--0--0--0--0--0--0--0--|

PM PM PM PM PM PM PM PM PM PM PM PM PM
E S E T T S T T S S S S S S S S
 
 -------------------------------------------------|
 -------------------------------------------------|
 -------------------------------------------------|
 -------------------------------------------------|
 --3----2-----------------------------------------|
 --1----0--0--0--0--0--0--3--3--0--5--4--4--0--1--|

PM PM PM PM PM PM PM PM PM PM PM PM PM PM PM PM PM
E S E T T S T T S T T S T T S T T S T T
 
 -------------------------------------------------------------|
 -------------------------------------------------------------|
 -------------------------------------------------------------|
 -------------------------------------------------------------|
 --3----2-----------------------------------------------------|
 --1----0--0--0--0--0--0--0--0--0--0--0--0--0--0--0--0--0--0--|

PM PM PM PM PM PM PM PM PM PM PM PM PM
E S E T T S T T S S S S S S S S
 
 -------------------------------------------------|
 -------------------------------------------------|
 -------------------------------------------------|
 -------------------------------------------------|
 --3----2-----------------------------------------|
 --1----0--0--0--0--0--0--1--2--1--3--3--6--3--5--|

PM PM PM PM PM PM PM PM PM PM PM PM PM PM PM PM PM
E S E T T S T T S T T S T T S T T S T T
 
 -------------------------------------------------------------|
 -------------------------------------------------------------|
 -------------------------------------------------------------|
 -------------------------------------------------------------|
 --3----2-----------------------------------------------------|
 --1----0--0--0--0--0--0--0--0--0--0--0--0--0--0--0--0--0--0--|

PM PM PM PM PM PM PM PM PM PM PM PM PM
E S E T T S T T S S S S S S S S
 
 -------------------------------------------------|
 -------------------------------------------------|
 -------------------------------------------------|
 -------------------------------------------------|
 --3----2-----------------------------------------|
 --1----0--0--0--0--0--0--3--3--0--5--4--4--0--1--|

PM PM PM PM PM PM PM PM PM PM PM PM PM PM PM PM PM
E S E T T S T T S T T S T T S T T S T T
 
 -------------------------------------------------------------|
 -------------------------------------------------------------|
 -------------------------------------------------------------|
 -------------------------------------------------------------|
 --3----2-----------------------------------------------------|
 --1----0--0--0--0--0--0--0--0--0--0--0--0--0--0--0--0--0--0--|

PM PM PM PM PM PM PM PM PM PM PM PM PM
E S E T T S T T S S S S S S S S E E E S S E E E S S
 
 -------------------------------------------------|----------------------------|
 -------------------------------------------------|----------------------------|
 -------------------------------------------------|----------------------------|
 -------------------------------------------------|--2--2--2--4-5-2--2--2--4-5-|
 --3----2-----------------------------------------|--0--0--0--2-3-0--0--0--2-3-|
 --1----0--0--0--0--0--0--1--2--1--3--3--6--3--5--|----------------------------|

E E E E Q E E E E E S S E E E S S
 
 -------------------------|----------------------------|
 -------------------------|----------------------------|
 -------------------------|----------------------------|
 --3--3--3--5--7----7--5--|--2--2--2--4-5-2--2--2--4-5-|
 --1--1--1--3--5----5--5--|--0--0--0--2-3-0--0--0--2-3-|
 -------------------------|----------------------------|

[E] [E] [E] [E] [E] [E] [E] [E]  
 
 --------------------------|
 --------------------------|
 --------------------------|
 --7--5--8--7--9--8--------|
 --5--3--6--5--7--6--7-----|
 --------------------5-----|

T T T T T T T T T T T T T T T T T T T T T T T T T T T T T T T T
 
 ------------------------------------------------------------------|
 ------------------------------------------------------------------|
 ------------------------------------------------------------------|
 --2-2-2-2-2-2-2-2-2-2-2-2-4-4-5-5-2-2-2-2-2-2-2-2-2-2-2-2-4-4-5-5-|
 --0-0-0-0-0-0-0-0-0-0-0-0-2-2-3-3-0-0-0-0-0-0-0-0-0-0-0-0-2-2-3-3-|
 ------------------------------------------------------------------|

T T T T T T T T T T T T T T T T T T T T T T T T T T T T T T T T
 
 ------------------------------------------------------------------|
 ------------------------------------------------------------------|
 ------------------------------------------------------------------|
 --3-3-3-3-3-3-3-3-3-3-3-3-5-5-5-5-7-7-7-7-7-7-7-7-7-7-7-7-5-5-5-5-|
 --1-1-1-1-1-1-1-1-1-1-1-1-3-3-3-3-5-5-5-5-5-5-5-5-5-5-5-5-5-5-5-5-|
 ------------------------------------------------------------------|

T T T T T T T T T T T T T T T T T T T T T T T T T T T T T T T T
 
 ------------------------------------------------------------------|
 ------------------------------------------------------------------|
 ------------------------------------------------------------------|
 --2-2-2-2-2-2-2-2-2-2-2-2-4-4-5-5-2-2-2-2-2-2-2-2-2-2-2-2-4-4-5-5-|
 --0-0-0-0-0-0-0-0-0-0-0-0-2-2-3-3-0-0-0-0-0-0-0-0-0-0-0-0-2-2-3-3-|
 ------------------------------------------------------------------|

PM PM
T T T T T T T T T T T T T T T T T T T T T T T T E S S
 
 -----------------------------------------------------------|
 -----------------------------------------------------------|
 -----------------------------------------------------------|
 --7-7-7-7-5-5-5-5-8-8-8-8-7-7-7-7-9-9-9-9-8-8-8-8----------|
 --5-5-5-5-3-3-3-3-6-6-6-6-5-5-5-5-7-7-7-7-6-6-6-6-7--------|
 --------------------------------------------------5--5--5--|

PM PM
E E E E E E E S S H Q Q
 
 -----------------------------|----------------------||
 -----------------------------|----------------------||
 -----------------------------|----------------------||
 --7--5--8--7--9--8-----------|----------------------||
 --5--3--6--5--7--6--7--------|--7--------7----L\----||
 --------------------5--5--5--|--5--------5----L\----||


Important: The song above is NOT stored on the Chordie server. The original song is hosted at www.azchords.com. Chordie works as a search engine and provides on-the-fly formatting. Chordie does not index songs against artists'/composers' will. To remove this song please click here.

Text color:
Chord color:
Chord grids: 
Font size:    
Page size: 

E
Rate #1 of 2 versions

Jango Player

Login - add to songbook

SHARE PAGE  



You need to log in to post comments