Guitar Tabs, Chords and Lyrics
Server problems seems to be fixed. Chordie has been experiencing problems with songs disappearing. These issues now seems to be fixed, but still verifying the fix. If you find anything strange, please email admin@chordie.com.


Enshrined in Crematoria   Cradle of Filth

 
 d|---------------------------------------|-----|-----|
 A|---------------------------------------|-----|-----|
 F|---------------------------------------|-----|-----|
 C|-2----------3------3--6------6--7----4-|-----|---4-|
 G|-2------5-4-3------3--6------6--7----4-|-4-4-|---4-|
 D|-0------3-2-1------1--4------4--5----2-|-2-2-|---2-|

 


 * * * *


 0:16


 

 
 d|------------------------------------------------------------------------|
 A|------------------------------------------------------------------------|
 F|------------------------------------------------------------------------|
 C|-------5-4-454-----------5/7-575-4---------5-4-454----------------------|
 G|-----7---------7-------7-----------------7---------7-------777799996666-|
 D|-0-7-------------7-0-7-------------7-0-7-------------7-8888-------------|

 


 


 0:33


 

 
 d|---------------------------------------------------------|
 A|---------------------------------------------------------|
 F|---------------------------------------------------------|
 C|-5--------5-----2--------2-----5--------5-----2--2--1--1-|
 G|-3--3-3-3-3-3-3-0--0-0-0-0-0-0-3--3-3-3-3-3-3-0--0--2--2-|
 D|-3--3-3-3-3-3-3-0--0-0-0-0-0-0-3--3-3-3-3-3-3-0--0--0--0-|

 


 * * * * * * * * * * * * * * *


 


 0:50


 

 
 d|------------------------------------------------------------------------|
 A|------------------------------------------------------------------------|
 F|------------------------------------------------------------------------|
 C|-------5-4-454-----------5/7-575-4---------5-4-454----------------------|
 G|-----7---------7-------7-----------------7---------7-------777799996666-|
 D|-0-7-------------7-0-7-------------7-0-7-------------7-8888-------------|

 


 


 1:06


 

 
 d|---------------------------------------------------------|
 A|---------------------------------------------------------|
 F|---------------------------------------------------------|
 C|-5--------5-----2--------2-----5--------5-----2--2--1--1-|
 G|-3--3-3-3-3-3-3-0--0-0-0-0-0-0-3--3-3-3-3-3-3-0--0--2--2-|
 D|-3--3-3-3-3-3-3-0--0-0-0-0-0-0-3--3-3-3-3-3-3-0--0--0--0-|

 


 * * * * * * * * * * * * * * *


 


 1:23


 

 
 d|----------------------------------------------------------------------|
 A|----------------------------------------------------------------------|
 F|----------------------------------------------------------------------|
 C|----------------------------------------------------------------------|
 G|-7107-----7107-----7107-----7107-----696-----696-----696-----9129-----|
 D|------0-0------0-0------0-0------0-0-----0-0-----0-0-----0-0------0-0-|

 


 * * * * * * * * * * * * * * * *


 


 

 
 d|----------------------------------------------------------------------|
 A|----------------------------------------------------------------------|
 F|----------------------------------------------------------------------|
 C|----------------------------------------------------------------------|
 G|-7107-----7107-----7107-----7107-----696-----696-----696-----9129-----|
 D|------0-0------0-0------0-0------0-0-----0-0-----0-0-----0-0------0-0-|

 


 * * * * * * * * * * * * * * * *


 


 1:31


 

 
 d|--------------------------------------------------|
 A|--------------------------------------------------|
 F|--------------------------------------------------|
 C|--------------------------------------------------|
 G|----------------------------------------------666-|

 


 D|-777875777875777875777875444555444111444111000----|


 1:35


 

 
 d|----------------------------------------------------------------------|
 A|----------------------------------------------------------------------|
 F|----------------------------------------------------------------------|
 C|----------------------------------------------------------------------|
 G|-7107-----7107-----7107-----7107-----696-----696-----696-----9129-----|
 D|------0-0------0-0------0-0------0-0-----0-0-----0-0-----0-0------0-0-|

 


 * * * * * * * * * * * * * * * *


 


 

 
 d|----------------------------------------------------------------------|
 A|----------------------------------------------------------------------|
 F|----------------------------------------------------------------------|
 C|----------------------------------------------------------------------|
 G|-7107-----7107-----7107-----7107-----696-----696-----696-----9129-----|
 D|------0-0------0-0------0-0------0-0-----0-0-----0-0-----0-0------0-0-|

 


 * * * * * * * * * * * * * * * *


 


 

 
 d|-----------------------------------------------|
 A|-----------------------------------------------|
 F|-----------------------------------------------|
 C|-----------------------------------------------|
 G|-----------------------------------------------|

 


 D|-777875777875777875777875444555444111444111000-|


 


 1:48 |2:04


 

 
 d|-----------------------------------------------------------------------------------------|----|--------|
 A|-----------------------------------------------------------------------------------------|----|--------|
 F|-----------------------------------------------------------------------------------------|----|88888888|
 C|-----------------------------------------------------------------121212121010101099999999|----|--------|
 G|-6666777777779999101010109999999910101010121212121010101010101010------------------------|6666|--------|
 D|-----------------------------------------------------------------------------------------|----|--------|

 


 


 2:05


 

 
 d|------------------------------------------------------------------------|
 A|------------------------------------------------------------------------|
 F|------------------------------------------------------------------------|
 C|-------5-4-454-----------5/7-575-4---------5-4-454----------------------|
 G|-----7---------7-------7-----------------7---------7-------777799996666-|
 D|-0-7-------------7-0-7-------------7-0-7-------------7-8888-------------|

 


 


 2:21


 

 
 d|---------------------------------------------------------|
 A|---------------------------------------------------------|
 F|---------------------------------------------------------|
 C|-5--------5-----2--------2-----5--------5-----2--2--1--1-|
 G|-3--3-3-3-3-3-3-0--0-0-0-0-0-0-3--3-3-3-3-3-3-0--0--2--2-|
 D|-3--3-3-3-3-3-3-0--0-0-0-0-0-0-3--3-3-3-3-3-3-0--0--0--0-|

 


 * * * * * * * * * * * * * * *


 


 2:38


 

 
 d|----------------------------------------------------------------------|
 A|----------------------------------------------------------------------|
 F|----------------------------------------------------------------------|
 C|----------------------------------------------------------------------|
 G|-7107-----7107-----7107-----7107-----696-----696-----696-----9129-----|
 D|------0-0------0-0------0-0------0-0-----0-0-----0-0-----0-0------0-0-|

 


 * * * * * * * * * * * * * * * *


 


 

 
 d|----------------------------------------------------------------------|
 A|----------------------------------------------------------------------|
 F|----------------------------------------------------------------------|
 C|----------------------------------------------------------------------|
 G|-7107-----7107-----7107-----7107-----696-----696-----696-----9129-----|
 D|------0-0------0-0------0-0------0-0-----0-0-----0-0-----0-0------0-0-|

 


 * * * * * * * * * * * * * * * *


 


 2:46


 

 
 d|--------------------------------------------------|
 A|--------------------------------------------------|
 F|--------------------------------------------------|
 C|--------------------------------------------------|
 G|----------------------------------------------666-|

 


 D|-777875777875777875777875444555444111444111000----|


 2:51


 

 
 d|-----------------------------------------------------------------------------------|
 A|-----------------------------------------------------------------------------------|
 F|-----------------------------------------------------------------------------------|
 C|-----------------------------------------------------------------------------------|
 G|-101410-----101410-----101410-----101410-----9139-----9139-----9139-----121612-----|
 D|--------0-0--------0-0--------0-0--------0-0------0-0------0-0------0-0--------0-0-|

 


 * * * * * * * * * * * * * * * *


 


 

 
 d|-----------------------------------------------------------------------------------|
 A|-----------------------------------------------------------------------------------|
 F|-----------------------------------------------------------------------------------|
 C|-----------------------------------------------------------------------------------|
 G|-101410-----101410-----101410-----101410-----9139-----9139-----9139-----141714-----|
 D|--------0-0--------0-0--------0-0--------0-0------0-0------0-0------0-0--------0-0-|

 


 * * * * * * * * * * * * * * * *


 


 

 
 d|-----------------------------------------------|
 A|-----------------------------------------------|
 F|-----------------------------------------------|
 C|-----------------------------------------------|
 G|-----------------------------------------------|

 


 D|-777875777875777875777875444555444111444111000-|


 


 3:03 |3:19


 

 
 d|-----------------------------------------------------------------------------------------|----|--------|
 A|-----------------------------------------------------------------------------------------|----|--------|
 F|-----------------------------------------------------------------------------------------|----|88888888|
 C|-----------------------------------------------------------------121212121010101099999999|----|--------|
 G|-6666777777779999101010109999999910101010121212121010101010101010------------------------|6666|--------|
 D|-----------------------------------------------------------------------------------------|----|--------|

 


 


 3:20


 Lead


 

 
 d|-12----------------------------------------------------------------------------------------------|
 A|----12-13-10-12----------------------------------12----------------------------------------------|
 F|----------------12-13-10-12----10-------------------12-13-10-12----------------------------------|
 C|----------------------------12----12-13-10-12-------------------12-13-10-12----------------10-12-|
 G|----------------------------------------------12----------------------------12-13-10-12-13-------|
 D|-------------------------------------------------------------------------------------------------|
 d|12----------------12----------------------------------------------------121312-------------------|
 A|---12-13-10-12-------12-13-------12----------12-12----------------------------1312101210---------|
 F|---------------12----------12-13----13----13-------12-13-10-12--------------------------12131012-|
 C|---------------------------------------12----------------------12-13-10--------------------------|
 G|-------------------------------------------------------------------------------------------------|
 D|-------------------------------------------------------------------------------------------------|

 


 


 Rhythm


 

 
 d|---------------------------------------------------------|
 A|---------------------------------------------------------|
 F|---------------------------------------------------------|
 C|-5--------5-----2--------2-----5--------5-----2--2--1--1-|
 G|-3--3-3-3-3-3-3-0--0-0-0-0-0-0-3--3-3-3-3-3-3-0--0--2--2-|
 D|-3--3-3-3-3-3-3-0--0-0-0-0-0-0-3--3-3-3-3-3-3-0--0--0--0-|

 


 * * * * * * * * * * * * * * *


 


 3:37 |3:52


 

 
 d|---------------------------------------|-----|-----|
 A|---------------------------------------|-----|-----|
 F|---------------------------------------|-----|-----|
 C|-2----------3------3--6------6--7----4-|-----|---4-|
 G|-2------5-4-3------3--6------6--7----4-|-4-4-|---4-|
 D|-0------3-2-1------1--4------4--5----2-|-2-2-|---2-|

 


 * * * *


 


 3:53


 Solo Rhythm


 

 
 d|----------------------------------------------------------------------------------------------------------|
 A|----------------------------------------------------------------------------------------------------------|
 F|----------------------------------------------------------------------------------------------------------|
 C|----------------------------------------------------------------------------------------------------------|
 G|2-----2-----2-----3-6-2-----2-----88887777--------2-----2-----2-----3-6-----2-------5-------8--------11---|
 D|0-00000-00000-00001-4-0-00000-0000--------888877770-00000-00000-00001-4-0-1---1-0-4---4-0-7---7-0-10----10|

 


 **** **** **** **** **** **** **** **** * * * * * * * * * * * *


 


 Solo Lead


 

 
 d|-12----13----19-18-16-18-16----16-----------------------16171613-------------------------------------|
 A|-15b---16b------------------19----19-15-17-18-17~-----15--------161413161413-------------------------|
 F|----------------------------------------------------13----------------------151312151312-------------|
 C|----------------------------------------------------------------------------------------151312151312-|
 G|-----------------------------------------------------------------------------------------------------|
 D|-----------------------------------------------------------------------------------------------------|
 d|-----------------------------------1619221916------------13b-pb13-13-pb13rb-13-11------17-------17--------|
 A|---------------------------------16----------16----------------------------------/16b----pb16------16-----|
 F|-------------------------------16--------------16--16~------------------------------------------------17b\|
 C|-----------------------------18------------------18-------------------------------------------------------|
 G|151312151312---------------17-----------------------------------------------------------------------------|
 D|------------151312151312-16-------------------------------------------------------------------------------|

 


 t


 


 

 
 d|-----------------------------------------------------------------------------------------------|
 A|-----------------------------------------------------------------------------------------------|
 F|-----------------------------------------------------------------------------------------------|
 C|-/20wfwf-18wf-20wfwf-18wf-20wfwf-18wfwf-16wf-18wfwf-16wf-18wfwf-16wfwf-14wf-16wfwf-14wf-16wfwf-|
 G|-----------------------------------------------------------------------------------------------|
 D|-----------------------------------------------------------------------------------------------|
 d|151412--------------------------------------------------------------------------------------------|
 A|------151412--------------------------------------------------------------------------------------|
 F|------------13141311----------9-9-9-9-9-9-9-9-10-10-10-10-10-10-10-10-14-14-14-14-14-14-16-14-13--|
 C|--------------------141311\-----------------------------------------------------------------------|
 G|------------------------------7-7-7-7-7-7-7-7-8--8--8--8--8--8--8--8--12-12-12-12-12-12-14-12-11--|
 D|--------------------------------------------------------------------------------------------------|
 d|----------1319221913--------------13191613161311--------1113141311/16-----/19-----/22~-|
 A|--------13----------13----------13--------------------11--------------18------21-------|
 F|------16--------------16------16--------------------13------------------18------21-----|
 C|----18------------------18--18--------------------14-----------------------------------|
 G|--18----------------------18--------------------14-------------------------------------|
 D|---------------------------------------------------------------------------------------|

 


 t


 


 

 
 d|-\--/------------------------------------------------------------------------------|
 A|-\--/-7-------------------------10ks(10)ks(10)ks(10)ks(10)ks(10)ks(10)ks(10)ks(10)-|
 F|-\--/-7----------------------7--10ks(10)ks(10)ks(10)ks(10)ks(10)ks(10)ks(10)ks(10)-|
 C|-\--/-9---9-7---7------7-9-7----12ks(12)ks(12)ks(12)ks(12)ks(12)ks(12)ks(12)ks(12)-|
 G|-\--/-7-------9----7-9----------10ks(10)ks(10)ks(10)ks(10)ks(10)ks(10)ks(10)ks(10)-|
 D|-\--/------------------------------------------------------------------------------|
 * * * * * * |gradually bend/whammy up--------------------------|
 d|------------------------------------------------------------pwd5wu--|
 A|----------------15-16-17-16-15-----------7wu-wd--pwd5wu-wd----------|
 F|-15-16-15-16-17----------------17-16~-------------------------------|
 C|--------------------------------------------------------------------|
 G|--------------------------------------------------------------------|
 D|--------------------------------------------------------------------|

 


 [+] [+] [+] 


 4:27 |4:42


 

 
 d|-----------------------------------------------------------------------------------------|----|--------|
 A|-----------------------------------------------------------------------------------------|----|--------|
 F|-----------------------------------------------------------------------------------------|----|88888888|
 C|-----------------------------------------------------------------121212121010101099999999|----|--------|
 G|-6666777777779999101010109999999910101010121212121010101010101010------------------------|6666|--------|
 D|-----------------------------------------------------------------------------------------|----|--------|

 


 


 4:43


 

 
 d|------------------------------------------------------------------------|
 A|------------------------------------------------------------------------|
 F|------------------------------------------------------------------------|
 C|-------5-4-454-----------5/7-575-4---------5-4-454----------------------|
 G|-----7---------7-------7-----------------7---------7-------777799996666-|
 D|-0-7-------------7-0-7-------------7-0-7-------------7-8888-------------|

 


 


 5:00


 Lead


 

 
 d|------------------------------------------------------------------------|
 A|-------6-5-565-----------6/8-686-5---------6-5-565----------------------|
 F|-----7---------7-------7-----------------7---------7-------777799996666-|
 C|-0-7-------------7-0-7-------------7-0-7-------------7-8888-------------|
 G|------------------------------------------------------------------------|
 D|------------------------------------------------------------------------|

 


 


 Rhythm


 

 
 d|------------------------------------------------------------------------|
 A|------------------------------------------------------------------------|
 F|------------------------------------------------------------------------|
 C|-------5-4-454-----------5/7-575-4---------5-4-454----------------------|
 G|-----7---------7-------7-----------------7---------7-------777799996666-|
 D|-0-7-------------7-0-7-------------7-0-7-------------7-8888-------------|

 


 


 5:17


 

 
 d|----------------------------------------------------------------------------|
 A|----------------------------------------------------------------------------|
 F|----------------------------------------------------------------------------|
 C|-2--------------------------------------------------------------------------|
 G|-2--------------------------------------------------------------------------|
 D|-0--------------------------------------------------------------------------|


Important: The song above is NOT stored on the Chordie server. The original song is hosted at www.azchords.com. Chordie works as a search engine and provides on-the-fly formatting. Chordie does not index songs against artists'/composers' will. To remove this song please click here.

This song is displayed as text-only. Transposing and tuning is only available for chordpro-songs.
Rate #1 of 1 versions

Login - add to songbook

SHARE PAGE  



You need to log in to post comments