Guitar Tabs, Chords and Lyrics
Server problems seems to be fixed. Chordie has been experiencing problems with songs disappearing. These issues now seems to be fixed, but still verifying the fix. If you find anything strange, please email admin@chordie.com.


Hurt and Virtue  Cradle of Filth

GT1
 
 -------------------------------------------------------------------------------------------------|
 -------------------------------------------------------------------------------------------------|
 -------------------------------------------------------------------------------------------------|
 -5--------------------8--1-----------3-----------5--------------------8--1-----------3-----------|
 -5--------------------8--1-----------3-----------5--------------------8--1-----------3-----------|
 -5--------------------8--1-----------3-----------5--------------------8--1-----------3-----------|

GT2
 
 -------------------------------------------------------------------------------------------------|
 -------------------------------------------------------------------------------------------------|
 -------------------------------------------------------------------------------------------------|
 -------5--7--------5--7--------------------3--5---------5--7--------5--7--------------------3--5-|
 ----5-----------5-----------1--3--5-----3------------5-----------5-----------1--3--5-----3-------|
 -5-----------5-----------1-----------3-----------5-----------5-----------1------------3----------|

0:10
[B]  
 
 -----------------------------------------------------------------|
 -----------------------------------------------------------------|
 -----------------------------------------------------------------|
 -----------------------------------------------------------------|
 -5-5-5-5-5-5-5-5-5-5-5-5-5-5-8-7-1-1-1-1-1-1-1-1-3-3-3-3-3-3-3-3-|
 -5-5-5-5-5-5-5-5-5-5-5-5-5-5-8-7-1-1-1-1-1-1-1-1-3-3-3-3-3-3-3-3-|

* * * * * * * * * * * * * * * * * * * * * * * * * * * * * * * *
 
 -----------------------------------------------------------------|
 -----------------------------------------------------------------|
 -----------------------------------------------------------------|
 -----------------------------------------------------------------|
 -5-5-5-5-5-5-5-5-5-5-5-5-5-5-8-7-1-1-1-1-1-1-1-1-3-3-3-3-3-3-3-3-|
 -5-5-5-5-5-5-5-5-5-5-5-5-5-5-8-7-1-1-1-1-1-1-1-1-3-3-3-3-3-3-3-3-|

* * * * * * * * * * * * * * * * * * * * * * * * * * * * * * * *
0:19
1L
 
 -------------------------------------------------------------------|
 -------------------------------------------------------------------|
 --------------------------------------------------7-------8---7----|
 ---------------------------------5-8-7-8-10-8-7-8---8-7-8---8---8--|
 -55555555--------55555555------------------------------------------|
 -55555555--------55555555------------------------------------------|

******** ******** * * * * * * * * * *
2R
 
 -------------------------------------------------------------------|
 -------------------------------------------------------------------|
 -------------------------------------------------------------------|
 -----------8--7------------8--7------------------------------------|
 -55555555--------55555555------------------------------------------|
 -55555555--------55555555------------------------------------------|

******** ********
1L
 
 -------------------------------------------------------------------|
 -------------------------------------------------------------------|
 --------------------------------------------------7-------8---7----|
 ---------------------------------5-8-7-8-10-8-7-8---8-7-8---8---8--|
 -55555555--------55555555------------------------------------------|
 -55555555--------55555555------------------------------------------|

******** ******** * * * * * * * * * *
2R
 
 -------------------------------------------------------------------|
 -------------------------------------------------------------------|
 -------------------------------------------------------------------|
 -----------8--7------------8--7------------------------------------|
 -55555555--------55555555------------------------------------------|
 -55555555--------55555555------------------------------------------|

******** ********
0:28
1L
 
 --------------------------------------------------------------|
 --------------------------------------------------------------|
 ----------7--5---------7--5------------------7-------8---7----|
 ----------------------------5-8-7-8-10-8-7-8---8-7-8---8---8--|
 -555-555--------5-5-5-----------------------------------------|
 -555-555--------5-5-5-----------------------------------------|

*** *** * * * * * * * * * * * * *
2R
 
 --------------------------------------------------------------|
 --------------------------------------------------------------|
 --------------------------------------------------------------|
 ----------8--7---------8--7-----------------------------------|
 -555-555--------5-5-5-----------------------------------------|
 -555-555--------5-5-5-----------------------------------------|

*** *** * * *
1L
 
 -------------------------------------------------------------------|
 -------------------------------------------------------------------|
 -----------7--5------------7--5-------------------7-------8---7----|
 ---------------------------------5-8-7-8-10-8-7-8---8-7-8---8---8--|
 -55555555--------55555555------------------------------------------|
 -55555555--------55555555------------------------------------------|

******** ******** * * * * * * * * * *
2R
 
 -------------------------------------------------------------------|
 -------------------------------------------------------------------|
 -------------------------------------------------------------------|
 -----------8--7------------8--7------------------------------------|
 -55555555--------55555555------------------------------------------|
 -55555555--------55555555------------------------------------------|

******** ********
0:38
[B]  
 
 -------------------------------------------------------------------------------------------|
 -------------------------------------------------------------------------------------------|
 -------------------------------------------------------------------------------------------|
 -9-----9-----9-----9-10-9-----9-----9-----9-10-5-----5-----5-----5-6-5-----5-----5-----5-7-|
 -7-----7-----7-----7--8-7-----7-----7-----7--8-3-----3-----3-----3-4-3-----3-----3-----3-5-|
 ---8-8---8-8---8-8--------8-8---8-8---8-8--------4-4---4-4---4-4-------4-4---4-4---4-4-----|

* * * * * * * * * * * * * * * * * * * * * * * *
 
 -------------------------------------------------------------------------------------------|
 -------------------------------------------------------------------------------------------|
 -------------------------------------------------------------------------------------------|
 -9-----9-----9-----9-10-9-----9-----9-----9-10-5-----5-----5-----5-6-5-----5-----5-----5-7-|
 -7-----7-----7-----7--8-7-----7-----7-----7--8-3-----3-----3-----3-4-3-----3-----3-----3-5-|
 ---8-8---8-8---8-8--------8-8---8-8---8-8--------4-4---4-4---4-4-------4-4---4-4---4-4-----|

* * * * * * * * * * * * * * * * * * * * * * * *
0:56
[B]  
 
 -----------------------------------------------------------------|
 -----------------------------------------------------------------|
 -----------------------------------------------------------------|
 -----------------------------------------------------------------|
 -----------------------------------------------------------------|
 -0-0-0-0-0-0-0-0-0-0-0-0-0-0-0-0-0-0-0-0-0-0-0-0-0-0-0-0-0-0-0-0-|

* * * * * * * * * * * * * * * * * * * * * * * * * * * * * * * *
 
 ---------------------------------------------------------------|
 ---------------------------------------------------------------|
 ---------------------------------------------------------------|
 ---------------------------------------------------------------|
 -----------------------------------------------------1------1--|
 -7-7-7-7-7-7-7-7-7-7-7-7-7-7-7-7-1-1-1-1-1-1-1-1-1-1-1--1-1-1--|

* * * * * * * * * * * * * * * * * * * * * * * * * * * *
 
 -----------------------------------------------------------------|
 -----------------------------------------------------------------|
 -----------------------------------------------------------------|
 -----------------------------------------------------------------|
 -----------------------------------------------------------------|
 -0-0-0-0-0-0-0-0-0-0-0-0-0-0-0-0-0-0-0-0-0-0-0-0-0-0-0-0-0-0-0-0-|

* * * * * * * * * * * * * * * * * * * * * * * * * * * * * * * *
 
 ---------------------------------------------------------------|
 ---------------------------------------------------------------|
 ---------------------------------------------------------------|
 ---------------------------------------------------------------|
 -----------------------------------------------------1------1--|
 -7-7-7-7-7-7-7-7-7-7-7-7-7-7-7-7-1-1-1-1-1-1-1-1-1-1-1--1-1-1--|

* * * * * * * * * * * * * * * * * * * * * * * * * * * *
1:12
1L
 
 -------------------------------------------------------------------|
 -------------------------------------------------------------------|
 --------------------------------------------------7-------8---7----|
 ---------------------------------5-8-7-8-10-8-7-8---8-7-8---8---8--|
 -55555555--------55555555------------------------------------------|
 -55555555--------55555555------------------------------------------|

******** ******** * * * * * * * * * *
2R
 
 -------------------------------------------------------------------|
 -------------------------------------------------------------------|
 -------------------------------------------------------------------|
 -----------8--7------------8--7------------------------------------|
 -55555555--------55555555------------------------------------------|
 -55555555--------55555555------------------------------------------|

******** ********
1L
 
 -------------------------------------------------------------------|
 -------------------------------------------------------------------|
 --------------------------------------------------7-------8---7----|
 ---------------------------------5-8-7-8-10-8-7-8---8-7-8---8---8--|
 -55555555--------55555555------------------------------------------|
 -55555555--------55555555------------------------------------------|

******** ******** * * * * * * * * * *
2R
 
 -------------------------------------------------------------------|
 -------------------------------------------------------------------|
 -------------------------------------------------------------------|
 -----------8--7------------8--7------------------------------------|
 -55555555--------55555555------------------------------------------|
 -55555555--------55555555------------------------------------------|

******** ********
1L
 
 --------------------------------------------------------------|
 --------------------------------------------------------------|
 ----------7--5---------7--5------------------7-------8---7----|
 ----------------------------5-8-7-8-10-8-7-8---8-7-8---8---8--|
 -555-555--------5-5-5-----------------------------------------|
 -555-555--------5-5-5-----------------------------------------|

*** *** * * * * * * * * * * * * *
2R
 
 --------------------------------------------------------------|
 --------------------------------------------------------------|
 --------------------------------------------------------------|
 ----------8--7---------8--7-----------------------------------|
 -555-555--------5-5-5-----------------------------------------|
 -555-555--------5-5-5-----------------------------------------|

*** *** * * *
1L
 
 -------------------------------------------------------------------|
 -------------------------------------------------------------------|
 -----------7--5------------7--5-------------------7-------8---7----|
 ---------------------------------5-8-7-8-10-8-7-8---8-7-8---8---8--|
 -55555555--------55555555------------------------------------------|
 -55555555--------55555555------------------------------------------|

******** ******** * * * * * * * * * *
2R
 
 -------------------------------------------------------------------|
 -------------------------------------------------------------------|
 -------------------------------------------------------------------|
 -----------8--7------------8--7------------------------------------|
 -55555555--------55555555------------------------------------------|
 -55555555--------55555555------------------------------------------|

******** ********
1:40
[B]  
 
 -------------------------------------------------------------------------------------------|
 -------------------------------------------------------------------------------------------|
 -------------------------------------------------------------------------------------------|
 -9-----9-----9-----9-10-9-----9-----9-----9-10-5-----5-----5-----5-6-5-----5-----5-----5-7-|
 -7-----7-----7-----7--8-7-----7-----7-----7--8-3-----3-----3-----3-4-3-----3-----3-----3-5-|
 ---8-8---8-8---8-8--------8-8---8-8---8-8--------4-4---4-4---4-4-------4-4---4-4---4-4-----|

* * * * * * * * * * * * * * * * * * * * * * * *
[B]  
 
 -----------------------------------------------------------------|
 -----------------------------------------------------------------|
 -----------------------------------------------------------------|
 -----------------------------------------------------------------|
 -----------------------------------------------------------------|
 -0-0-0-0-0-0-0-0-0-0-0-0-0-0-0-0-0-0-0-0-0-0-0-0-0-0-0-0-0-0-0-0-|

* * * * * * * * * * * * * * * * * * * * * * * * * * * * * * * *
 
 ---------------------------------------------------------------|
 ---------------------------------------------------------------|
 ---------------------------------------------------------------|
 ---------------------------------------------------------------|
 -----------------------------------------------------1------1--|
 -7-7-7-7-7-7-7-7-7-7-7-7-7-7-7-7-1-1-1-1-1-1-1-1-1-1-1--1-1-1--|

* * * * * * * * * * * * * * * * * * * * * * * * * * * *
 
 -----------------------------------------------------------------|
 -----------------------------------------------------------------|
 -----------------------------------------------------------------|
 -----------------------------------------------------------------|
 -----------------------------------------------------------------|
 -0-0-0-0-0-0-0-0-0-0-0-0-0-0-0-0-0-0-0-0-0-0-0-0-0-0-0-0-0-0-0-0-|

* * * * * * * * * * * * * * * * * * * * * * * * * * * * * * * *
 
 ---------------------------------------------------------------|
 ---------------------------------------------------------------|
 ---------------------------------------------------------------|
 ---------------------------------------------------------------|
 -----------------------------------------------------1------1--|
 -7-7-7-7-7-7-7-7-7-7-7-7-7-7-7-7-1-1-1-1-1-1-1-1-1-1-1--1-1-1--|

* * * * * * * * * * * * * * * * * * * * * * * * * * * *
2:07
GT 1 LET RING THROUGHOUT
 
 ------------------------------------------------------------------|
 ------------------------------------------------------------------|
 ------------------------------------------------------------------|
 ---------5-8-7--------0-4-5-4--3----3---5-5-7---1----1---1-3-3-1--|
 -0-----0-5-5-5--0---0---5-5-5--3--3---3-------3-1--1---1----------|
 -0---0----------0--------------3----------------1-----------------|

GT2 WITH TREMELO EFFECT AND PANNER
 
 ------------------------------------------------------------------|
 ----------_--------------_----------------------------------------|
 ---------/ \------------/ \---------------------------------------|
 --------7-8-7-------0--4-5-4--------------------------------------|
 ------------------------------------------------------------------|
 ------------------------------------------------------------------|

GT 1 LET NOTES RING THROUGHOUT
 
 ------------------------------------------------------------------|
 ------------------------------------------------------------------|
 ------------------------------------------------------------------|
 ---------5-8-7--------0-4-5-4--3----3---5-5-7---1----1---3-5-3-1--|
 -0-----0-5-5-5--0---0---5-5-5--3--3---3-------3-1--1---1----------|
 -0---0----------0--------------3----------------1-----------------|

GT2 WITH TREMELO EFFECT
 
 ------------------------------------------------------------------|
 ----------_--------------_----------------------------------------|
 ---------/ \------------/ \---------------------------------------|
 --------7-8-7-------0--4-5-4--------------------------------------|
 ------------------------------------------------------------------|
 ------------------------------------------------------------------|

2:25
LET NOTES RING THROUGHOUT
 
 ---------------------------------------------------|
 ---------------------------------------------------|
 ---------------------------------------------------|
 ------7--7-------7--7-------5--5--------3-5-3-1----|
 -0----5--5--0----5--5--3----3--3--1----------------|
 -0----------0----------3----------1----------------|

LET NOTES RING THROUGHOUT
 
 ---------------------------------------------------|
 ---------------------------------------------------|
 ---------------------------------------------------|
 ------7--7-------7--7-------5--5--------3-5-3-1----|
 -0----5--5--0----5--5--3----3--3--1----------------|
 -0----------0----------3----------1----------------|

2:41
 
 --------------------------------------------------------------------------------------------------|
 --------------------------------------------------------------------------------------------------|
 --------------------------------------------------------------------------------------------------|
 -7--7--5-8-7--7--7--7/8-8--8/10-10--10\8-8--7--5--7--7--5-8-7--7--7--7/8-8--8/10-10--10\8-8--7--5-|
 -7--7--5-8-7--7--7--7/8-8--8/10-10--10\8-8--7--5--7--7--5-8-7--7--7--7/8-8--8/10-10--10\8-8--7--5-|
 -7--7--5-8-7--7--7--7/8-8--8/10-10--10\8-8--7--5--7--7--5-8-7--7--7--7/8-8--8/10-10--10\8-8--7--5-|
 ------------------------------------------------------------------|
 ------------------------------------------------------------------|
 ------------------------------------------------------------------|
 -7------7------5-8-7------7------7---7-8-8--8-10-10--10\8-8--7--5-|
 -7-7777-7-7777-5-8-7-7777-7-7777-7-7-7/8-8--8/10-10--10\8-8--7--5-|
 -7-7777-7-7777-5-8-7-7777-7-7777-7-7-7/8-8--8/10-10--10\8-8--7--5-|

**** **** **** **** *
 
 ------------------------------------------------------------------|
 ------------------------------------------------------------------|
 ------------------------------------------------------------------|
 -7------7------5-8-7------7------7---7-8-8--8-10-10--10\8-8--7--5-|
 -7-7777-7-7777-5-8-7-7777-7-7777-7-7-7/8-8--8/10-10--10\8-8--7--5-|
 -7-7777-7-7777-5-8-7-7777-7-7777-7-7-7/8-8--8/10-10--10\8-8--7--5-|

**** **** **** **** *
3:04
[1]  
 
 ------------------------------------------------------------------|
 ------------------------------------------------------------------|
 ------------------------------------------------------------------|
 ------------------------------------------------------------------|
 -7-7777-7-7777-5-8-7-7777-7-7777-7-7-7/8-8--8/10-10--10\8-8--7--5-|
 -7-7777-7-7777-5-8-7-7777-7-7777-7-7-7/8-8--8/10-10--10\8-8--7--5-|

**** **** **** **** *
2 WITH DELAY EFFECT SET FOR 1.4 SECS APPROX PANNED RIGHT
 
 ------------------------------------------------------------------|
 --------------------------------------OFF-------------------------|
 ----------------------------------------------------------tr~~~~~~|
 ----10--12--14--14~~~-----------------10--12--14--15--14--1214----|
 ------------------------------------------------------------------|
 ------------------------------------------------------------------|

[1]  
 
 ------------------------------------------------------------------|
 ------------------------------------------------------------------|
 ------------------------------------------------------------------|
 ------------------------------------------------------------------|
 -7-7777-7-7777-5-8-7-7777-7-7777-7-7-7/8-8--8/10-10--10\8-8--7--5-|
 -7-7777-7-7777-5-8-7-7777-7-7777-7-7-7/8-8--8/10-10--10\8-8--7--5-|

**** **** **** **** *
2 WITH DELAY EFFECT SET FOR 1.4 SECS APPROX PANNED RIGHT
 
 ------------------------------------------------------------------|
 --------------------------------------OFF-------------------------|
 ------------------------------------------------------------------|
 ----10--12--14--14~~~-----------------10--12--14--17--15--14--15--|
 ------------------------------------------------------------------|
 ------------------------------------------------------------------|

[B]  
 
 ---------------------------------------------------------------------|
 ---------------------------------------------------------------------|
 ---------------------------------------------------------------------|
 -----------------9-9-9-9------------------------10-10-10-10----------|
 -7-7-7-7-7-7-7-7---------7-7-7-7-8-8-8-8-8-8-8-8------------8-8-8-8--|
 ---------------------------------------------------------------------|
 ----------------------------------------------------------------------------|
 ----------------------------------------------------------------------------|
 ----------------------------------------------------------------------------|
 -----------------7-7-7-7----------------12-12-12-12-10-10-10-10-12-12-12-12-|
 -5-5-5-5-5-5-5-5--------5-5-5-5-8-8-8-8-------------------------------------|
 ----------------------------------------------------------------------------|
 ----------------------------------------------------------------------------|
 ----------------------------------------------------------------------------|
 ----------------------------------------------------------------------------|
 -5-5-5--5--5---5--5--5----7--7--7--7---7--7---2---4---5---4---5---7---9---7-|
 -3-3-3--3--3---3--3--3----5--5--5--5---5--5---0---2---3---2---3---5---7---5-|
 ----------------------------------------------------------------------------|

3:24
[1]  
 
 ------------------------------------------------------------------|
 ------------------------------------------------------------------|
 ------------------------------------------------------------------|
 ------------------------------------------------------------------|
 -7-7777-7-7777-5-8-7-7777-7-7777-7-7-7/8-8--8/10-10--10\8-8--7--5-|
 -7-7777-7-7777-5-8-7-7777-7-7777-7-7-7/8-8--8/10-10--10\8-8--7--5-|

**** **** **** **** *
2 WITH DELAY EFFECT SET FOR 1.4 SECS APPROX PANNED RIGHT
 
 ------------------------------------------------------------------|
 --------------------------------------OFF-------------------------|
 ----------------------------------------------------------tr~~~~~~|
 ----10--12--14--14~~~-----------------10--12--14--15--14--1214----|
 ------------------------------------------------------------------|
 ------------------------------------------------------------------|

[1]  
 
 ------------------------------------------------------------------|
 ------------------------------------------------------------------|
 ------------------------------------------------------------------|
 ------------------------------------------------------------------|
 -7-7777-7-7777-5-8-7-7777-7-7777-7-7-7/8-8--8/10-10--10\8-8--7--5-|
 -7-7777-7-7777-5-8-7-7777-7-7777-7-7-7/8-8--8/10-10--10\8-8--7--5-|

**** **** **** **** *
2 WITH DELAY EFFECT SET FOR 1.4 SECS APPROX PANNED RIGHT
 
 ------------------------------------------------------------------|
 --------------------------------------OFF-------------------------|
 ------------------------------------------------------------------|
 ----10--12--14--14~~~-----------------10--12--14--17--15--14--15--|
 ------------------------------------------------------------------|
 ------------------------------------------------------------------|

[B]  
 
 ---------------------------------------------------------------------|
 ---------------------------------------------------------------------|
 ---------------------------------------------------------------------|
 -----------------9-9-9-9------------------------10-10-10-10----------|
 -7-7-7-7-7-7-7-7---------7-7-7-7-8-8-8-8-8-8-8-8------------8-8-8-8--|
 ---------------------------------------------------------------------|
 ----------------------------------------------------------------------------|
 ----------------------------------------------------------------------------|
 ----------------------------------------------------------------------------|
 -----------------7-7-7-7----------------12-12-12-12-10-10-10-10-12-12-12-12-|
 -5-5-5-5-5-5-5-5--------5-5-5-5-8-8-8-8-------------------------------------|
 ----------------------------------------------------------------------------|
 -----------------------------------------------------------------------------|
 -----------------------------------------------------------------------------|
 -----------------------------------------------------------------------------|
 -5-5-5--5--5---5--5--5----7--7--7--7---7--7---2---4---5---4---5---7---9---7--|
 -3-3-3--3--3---3--3--3----5--5--5--5---5--5---0---2---3---2---3---5---7---5--|
 -----------------------------------------------------------------------------|
 --------------------------------|
 --------------------------------|
 --------------------------------|
 -2---4---5---4---5---7---9---7--|
 -0---2---3---2---3---5---7---5--|
 --------------------------------|

3:48
[1]  
 
 -------------------------------------------------------------------------------------------------|
 -------------------------------------------------------------------------------------------------|
 -------------------------------------------------------------------------------------------------|
 -5--------------------8--1-----------3-----------5--------------------8--1-----------3-----------|
 -5--------------------8--1-----------3-----------5--------------------8--1-----------3-----------|
 -5--------------------8--1-----------3-----------5--------------------8--1-----------3-----------|

[2]  
 
 -------------------------------------------------------------------------------------------------|
 -------------------------------------------------------------------------------------------------|
 -------------------------------------------------------------------------------------------------|
 -------5--7--------5--7--------------------3--5---------5--7--------5--7--------------------3--5-|
 ----5-----------5-----------1--3--5-----3------------5-----------5-----------1--3--5-----3-------|
 -5-----------5-----------1-----------3-----------5-----------5-----------1------------3----------|

[B]  
 
 -----------------------------------------------------------------|
 -----------------------------------------------------------------|
 -----------------------------------------------------------------|
 -----------------------------------------------------------------|
 -5-5-5-5-5-5-5-5-5-5-5-5-5-5-8-7-1-1-1-1-1-1-1-1-3-3-3-3-3-3-3-3-|
 -5-5-5-5-5-5-5-5-5-5-5-5-5-5-8-7-1-1-1-1-1-1-1-1-3-3-3-3-3-3-3-3-|

* * * * * * * * * * * * * * * * * * * * * * * * * * * * * * * *
 
 -----------------------------------------------------------------|
 -----------------------------------------------------------------|
 -----------------------------------------------------------------|
 -----------------------------------------------------------------|
 -5-5-5-5-5-5-5-5-5-5-5-5-5-5-8-7-1-1-1-1-1-1-1-1-3-3-3-3-3-3-3-3-|
 -5-5-5-5-5-5-5-5-5-5-5-5-5-5-8-7-1-1-1-1-1-1-1-1-3-3-3-3-3-3-3-3-|

* * * * * * * * * * * * * * * * * * * * * * * * * * * * * * * *
4:08
 
 -----------------------------------------------------|
 -----------------------------------------------------|
 -----------------------------------------------------|
 -5---------5----------1----------3---------0---------|
 -5---------5----------1----------3---------0---------|
 -5---------4----------1----------3---------0---------|

[1]  
 
 ---------------------------------------------------------------------|
 ---------------------------------------------------------------------|
 ---------------------------------------------------------------------|
 -5--------------------------------5----------------------------------|
 -5--------------------------------5----------------------------------|
 -5--------------------------------4----------------------------------|

[2]  
 
 ---------------------------------------------------------------------|
 ---------------------------------------------------------------------|
 ---------------------------------------------------------------------|
 -----------------5555555577777777----------------7777777788888888----|
 ---------55555555------------------------55555555--------------------|
 -55555555------------------------55555555----------------------------|

[1]  
 
 ------------------------------------------------------------------|
 ------------------------------------------------------------------|
 ------------------------------------------------------------------|
 ------------------------------------------------------------------|
 -1--------------------------------3--------------0----------------|
 -1--------------------------------3--------------0----------------|

[2]  
 
 ------------------------------------------------------------------|
 ------------------------------------------------------------------|
 ------------------------------------------------------------------|
 ------------------------------------------------------------------|
 ---------111111113333333355555555333333331111111100000000---------|
 -11111111------------------------------------------------33333333-|

[1]  
 
 ---------------------------------------------------------------------|
 ---------------------------------------------------------------------|
 ---------------------------------------------------------------------|
 ---------------------------------------------------------------------|
 -5---5---5---5---5---5---5---5---5---5---5---5---5---5---8---8-------|
 -5---5---5---5---5---5---5---5---5---5---5---5---5---5---8---8-------|

[2]  
 
 ---------------------------------------------------------------------|
 ---------------------------------------------------------------------|
 ---------------------------------------------------------------------|
 -----------------5555555577777777----------------7777777788888888----|
 ---------55555555------------------------55555555--------------------|
 -55555555------------------------55555555----------------------------|

[1]  
 
 ------------------------------------------------------------------|
 ------------------------------------------------------------------|
 ------------------------------------------------------------------|
 ------------------------------------------------------------------|
 -1---1---1---1---1---1---1---1---3---3---3---3---3---3---3---3----|
 -1---1---1---1---1---1---1---1---3---3---3---3---3---3---3---3----|

[2]  
 
 ------------------------------------------------------------------|
 ------------------------------------------------------------------|
 ------------------------------------------------------------------|
 ------------------------------------------------------------------|
 ---------111111113333333355555555333333331111111100000000---------|
 -11111111------------------------------------------------33333333-|

4:40
[1]  
 
 ---------------------------------------------------------------------|
 ---------------------------------------------------------------------|
 ---------------------------------------------------------------------|
 ---------------------------------------------------------------------|
 -5---5---5---5---5---5---5---5---5---5---5---5---5---5---5---5-------|
 -5---5---5---5---5---5---5---5---4---4---4---4---4---4---4---4-------|

[2]  
 
 ---------------------------------------------------------------------|
 ---------------------------------------------------------------------|
 ---------------------------------------------------------------------|
 -----------------5555555577777777----------------7777777788888888----|
 ---------55555555------------------------55555555--------------------|
 -55555555------------------------55555555----------------------------|

[1]  
 
 ------------------------------------------------------------------|
 ------------------------------------------------------------------|
 ------------------------------------------------------------------|
 ------------------------------------------------------------------|
 -1---1---1---1---1---1---1---1---3---3---3---3---0---0---0---0----|
 -1---1---1---1---1---1---1---1---3---3---3---3---0---0---0---0----|

[2]  
 
 ------------------------------------------------------------------|
 ------------------------------------------------------------------|
 ------------------------------------------------------------------|
 ------------------------------------------------------------------|
 ---------111111113333333355555555333333331111111100000000---------|
 -11111111------------------------------------------------33333333-|

[1]  
 
 ---------------------------------------------------------------------|
 ---------------------------------------------------------------------|
 ---------------------------------------------------------------------|
 ---------------------------------------------------------------------|
 -5---5---5---5---5---5---5---5---5---5---5---5---5---5---8---8-------|
 -5---5---5---5---5---5---5---5---5---5---5---5---5---5---8---8-------|

[2]  
 
 ---------------------------------------------------------------------|
 ---------------------------------------------------------------------|
 ---------------------------------------------------------------------|
 -----------------5555555577777777----------------7777777788888888----|
 ---------55555555------------------------55555555--------------------|
 -55555555------------------------55555555----------------------------|

[1]  
 
 ------------------------------------------------------------------|
 ------------------------------------------------------------------|
 ------------------------------------------------------------------|
 ------------------------------------------------------------------|
 -1---1---1---1---1---1---1---1---3---3---3---3---3---3---3---3----|
 -1---1---1---1---1---1---1---1---3---3---3---3---3---3---3---3----|

[2]  
 
 ------------------------------------------------------------------|
 ------------------------------------------------------------------|
 ------------------------------------------------------------------|
 ------------------------------------------------------------------|
 ---------111111113333333355555555333333331111111100000000---------|
 -11111111------------------------------------------------33333333-|

[1]  
 
 ---------------------------------------------------------------------|
 ---------------------------------------------------------------------|
 ---------------------------------------------------------------------|
 ---------------------------------------------------------------------|
 -5---5---5---5---5---5---5---5---5---5---5---5---5---5---5---5-------|
 -5---5---5---5---5---5---5---5---4---4---4---4---4---4---4---4-------|

[2]  
 
 ---------------------------------------------------------------------|
 ---------------------------------------------------------------------|
 ---------------------------------------------------------------------|
 -----------------5555555577777777----------------7777777788888888----|
 ---------55555555------------------------55555555--------------------|
 -55555555------------------------55555555----------------------------|

[1]  
 
 ------------------------------------------------------------------|
 ------------------------------------------------------------------|
 ------------------------------------------------------------------|
 ------------------------------------------------------------------|
 -1---1---1---1---1---1---1---1---3---3---3---3---0---0---0---0----|
 -1---1---1---1---1---1---1---1---3---3---3---3---0---0---0---0----|

[2]  
 
 ------------------------------------------------------------------|
 ------------------------------------------------------------------|
 ------------------------------------------------------------------|
 ------------------------------------------------------------------|
 ---------111111113333333355555555333333331111111100000000---------|
 -11111111------------------------------------------------33333333-|

5:12
WITH TREMELO EFFECT AND PANNER
 
 ------------------------------------------------------------------|
 ------------------------------------------------------------------|
 ------------------------------------------------------------------|
 ----------5---7-----------7---8-----------------------------------|
 ------5---------------5---------------1---3---5---3---1---0-------|
 -5----------------5---------------1---------------------------3---|


Important: The song above is NOT stored on the Chordie server. The original song is hosted at www.azchords.com. Chordie works as a search engine and provides on-the-fly formatting. Chordie does not index songs against artists'/composers' will. To remove this song please click here.

Text color:
Chord color:
Chord grids: 
Font size:    
Page size: 

B
Rate #1 of 1 versions

Login - add to songbook

SHARE PAGE  




You need to log in to post comments