Guitar Tabs, Chords and Lyrics
Server problems seems to be fixed. Chordie has been experiencing problems with songs disappearing. These issues now seems to be fixed, but still verifying the fix. If you find anything strange, please email admin@chordie.com.


Temptation  Cradle of Filth

Temptation thought id post it for those who dont have gp5 DGCFAD
 
 -------------------|----------------------|-------------------|
 -------------------|----------------------|--L----------------|
 -------------------|----------------------|--L----------------|
 -------------------|--5--------8------10--|--L----------------|
 -------------------|--3--------6-------8--|--L----------------|
 -------------------|--3--------6-------8--|--L----------------|

H Q. E W W
 
 ----------------------|-------------------|--------------------|
 ----------------------|-------------------|--------------------|
 ----------------------|-------------------|--------------------|
 --5--------8------10--|--L----------------|--10----------------|
 --3--------6-------8--|--L----------------|---8----------------|
 --3--------6-------8--|--L----------------|---8----------------|

[E] [E] [E] [E] [E] [E] [E] [E] [E] [E] [E] [E] [E] [E] [E] [E]  
 
 --------------------------|--------------------------|
 --------------------------|--------------------------|
 --------------------------|--------------------------|
 --8--7-----3-----5--------|--------5-----------5-----|
 --6--5-----1-----3--------|--------3-----------3-----|
 --6--5--0--1--0--3--0--0--|--0--0--3--0--0--0--3--0--|

[E] [E] [E] [E] [E] [E] [E] [E] [E] [E] [E] [E] [E] [E] [E] [E]  
 
 --------------------------|--------------------------|
 --------------------------|--------------------------|
 --------------------------|--------------------------|
 --8--5-----3-----5-----2--|--L-----------------------|
 --6--7-----1-----3-----0--|--L-----------------------|
 --6--7--0--1--0--3--0--0--|--L--0--0--0--0--0--0--0--|

[E] [E] [E] [E] [E] [E] [E] [E] [E] [E] [E] [E] [E] [E] [E] [E]  
 
 --------------------------|--------------------------|
 --------------------------|--------------------------|
 --------------------------|--------------------------|
 --8--7-----3-----5--------|--------5-----------5-----|
 --8--5-----1-----3--------|--------3-----------3-----|
 --6--5--0--1--0--3--0--0--|--0--0--3--0--0--0--3--0--|

[E] [E] [E] [E] [E] [E] [E] [E] [E] [E] [E] [E] [E] [E] [E] [E]  
 
 --------------------------|--------------------------|
 --------------------------|--------------------------|
 --------------------------|--------------------------|
 --8--7-----3-----5-----2--|--L-----------------------|
 --6--5-----1-----3-----0--|--L-----------------------|
 --6--5--0--1--0--3--0--0--|--L--0--0--0--0--0--0--0--|

[E] [E] [E] [E] [E] [E] [E] [E] [E] [E] [E] [E] [E] [E] [E] [E]  
 
 --------------------------|--------------------------|
 --------------------------|--------------------------|
 --------------------------|--------------------------|
 --8--7-----3-----5--------|--------5-----------5-----|
 --6--5-----1-----3--------|--------3-----------3-----|
 --6--5--0--1--0--3--0--0--|--0--0--3--0--0--0--3--0--|

[E] [E] [E] [E] [E] [E] [E] [E] [E] [E] [E] [E] [E] [E] [E] [E]  
 
 --------------------------|--------------------------|
 --------------------------|--------------------------|
 --------------------------|--------------------------|
 --8--7-----3-----5-----2--|--L-----------------------|
 --6--5-----1-----3-----0--|--L-----------------------|
 --6--5--0--1--0--3--0--0--|--L--0--0--0--0--0--0--0--|

[E] [E] [E] [E] [E] [E] [E] [E] [E] [E] [E] [E] [E] [E] [E] [E]  
 
 --------------------------|--------------------------|
 --------------------------|--------------------------|
 --------------------------|--------------------------|
 --8--7-----3-----5--------|--------5-----------5-----|
 --6--5-----1-----3--------|--------3-----------3-----|
 --6--5--0--1--0--3--0--0--|--0--0--3--0--0--0--3--0--|

E E E E E E E E E E E E E E E E W
 
 --------------------------|--------------------------|--------------------|
 --------------------------|--------------------------|--------------------|
 --------------------------|--------------------------|--------------------|
 --8--7-----3-----5-----2--|--L-----------------------|--10----------------|
 --6--5-----1-----3-----0--|--L-----------------------|---8----------------|
 --6--5--0--1--0--3--0--0--|--L--0--0--0--0--0--0--0--|---8----------------|

W W W
 
 -------------------|--------------------|-------------------|
 -------------------|--------------------|-------------------|
 -------------------|--------------------|-------------------|
 --6----------------|--10----------------|--6----------------|
 --4----------------|---8----------------|--4----------------|
 --4----------------|---8----------------|--4----------------|

W W W
 
 --------------------|-------------------|--------------------|
 --------------------|-------------------|--------------------|
 --------------------|-------------------|--------------------|
 --10----------------|--6----------------|--10----------------|
 ---8----------------|--4----------------|---8----------------|
 ---8----------------|--4----------------|---8----------------|

W W W W
 
 -------------------|-------------------|-------------------|-------------------|
 -------------------|-------------------|-------------------|-------------------|
 -------------------|-------------------|-------------------|-------------------|
 --6----------------|-------------------|-------------------|-------------------|
 --4----------------|-------------------|-------------------|-------------------|
 --4----------------|-------------------|-------------------|-------------------|

W W W W
 
 -------------------|-------------------|-------------------|-------------------|
 -------------------|-------------------|-------------------|-------------------|
 -------------------|-------------------|-------------------|-------------------|
 -------------------|-------------------|-------------------|-------------------|
 -------------------|-------------------|-------------------|-------------------|
 -------------------|-------------------|-------------------|-------------------|

W W W W
 
 -------------------|-------------------|-------------------|-------------------|
 -------------------|-------------------|-------------------|-------------------|
 -------------------|-------------------|-------------------|-------------------|
 -------------------|-------------------|-------------------|-------------------|
 -------------------|-------------------|-------------------|-------------------|
 -------------------|-------------------|-------------------|-------------------|

W H Q. E W
 
 -------------------|----------------------|-------------------|
 -------------------|----------------------|-------------------|
 -------------------|----------------------|-------------------|
 -------------------|--5--------8------10--|--L----------------|
 -------------------|--3--------6-------8--|--L----------------|
 -------------------|--3--------6-------8--|--L----------------|

H Q. E W E E E E E E E E
 
 ----------------------|-------------------|--------------------------|
 ----------------------|-------------------|--------------------------|
 ----------------------|-------------------|--------------------------|
 --5--------8------10--|--L----------------|--8--7-----3-----5--------|
 --3--------6-------8--|--L----------------|--6--5-----1-----3--------|
 --3--------6-------8--|--L----------------|--6--5--0--1--0--3--0--0--|

[E] [E] [E] [E] [E] [E] [E] [E] [E] [E] [E] [E] [E] [E] [E] [E]  
 
 --------------------------|--------------------------|
 --------------------------|--------------------------|
 --------------------------|--------------------------|
 --------5-----------5-----|--8--7-----3-----5-----2--|
 --------3-----------3-----|--6--5-----1-----3-----0--|
 --0--0--3--0--0--0--3--0--|--6--5--0--1--0--3--0--0--|

[E] [E] [E] [E] [E] [E] [E] [E] [E] [E] [E] [E] [E] [E] [E] [E]  
 
 --------------------------|--------------------------|
 --------------------------|--------------------------|
 --------------------------|--------------------------|
 --L-----------------------|--8--7-----3-----5--------|
 --L-----------------------|--6--5-----1-----3--------|
 --L--0--0--0--0--0--0--0--|--6--5--0--1--0--3--0--0--|

[E] [E] [E] [E] [E] [E] [E] [E] [E] [E] [E] [E] [E] [E] [E] [E]  
 
 --------------------------|--------------------------|
 --------------------------|--------------------------|
 --------------------------|--------------------------|
 --------5-----------5-----|--8--7-----3-----5-----2--|
 --------3-----------3-----|--6--5-----1-----3-----0--|
 --0--0--3--0--0--0--3--0--|--6--5--0--1--0--3--0--0--|

[E] [E] [E] [E] [E] [E] [E] [E]  
 
 --------------------------|
 --------------------------|
 --------------------------|
 --L-----------------------|
 --L-----------------------|
 --L--0--0--0--0--0--0--0--|

T T T T T T T T T T T T T T T T T T T T T T T T T T T T T T T T
 
 ------3-3-8-8---------3-3-8-8---------3-3-8-8---------3-3-8-8-----|
 --1-----------8-8-------------8-8-------------8-8-------------8-8-|
 --5-5-------------5-5-------------5-5-------------5-5-------------|
 --5---------------------------------------------------------------|
 --3---------------------------------------------------------------|
 ------------------------------------------------------------------|

T T T T T T T T T T T T T T T T T T T T T T T T T T T T T T T T
 
 ------3-3-8-8---------3-3-8-8---------6-6-11-11-----------6-6-11-11-------|
 --------------8-8-------------8-8-4-------------11-11---------------11-11-|
 --5-5-------------5-5-------------8-8-----------------8-8-----------------|
 --6-------------------------------8---------------------------------------|
 --6-------------------------------6---------------------------------------|
 --4-----------------------------------------------------------------------|

T T T T T T T T T T T T T T T T T T T T T T T T T T T T T T T T
 
 ------3-3-8-8---------3-3-8-8---------6-6-11-11-------11-11-------11-11-------|
 --1-----------8-8-------------8-8---------------11-11-------11-11-------11-11-|
 --5-5-------------5-5-------------8-8-----------------------------------------|
 --5-------------------------------8-------------------------------------------|
 --3-------------------------------8-------------------------------------------|
 ----------------------------------6-------------------------------------------|

S S S S S S S S Q Q W H H
 
 --13-8-13-8-13----13----13---------|--------------------|--------------------|
 ---------------13----13------------|--------------------|--------------------|
 -----------------------------------|--------------------|--------------------|
 ---6-------------------------------|--10----------------|--6--------5--------|
 ---6-------------------------------|--10----------------|--6--------5--------|
 ---4-------------------------------|---8----------------|--4--------3--------|

H H H Q Q H Q E E
 
 ---------------------|---------------------|----------------------|
 ---------------------|---------------------|----------------------|
 ---------------------|----------------8----|----------------8--7--|
 --10--------6--------|--5--------6----8----|--8--------6----8--7--|
 --10--------6--------|--5--------6----6----|--8--------6----6--5--|
 ---8--------4--------|--3--------4---------|--6--------4----------|

S Q Q E E. E E E E E E E E E E E E E E E E E
 
 ------------------------|--------------------------|--------------------------|
 ------------------------|--------------------------|--------------------------|
 --L-----------8--7------|--------------------------|--------------------------|
 --L-6----6----8--7---6--|--L--8--7-----3-----5-----|-----------5-----------5--|
 --L-6----6----6--5---6--|--L--6--5-----1-----3-----|-----------3-----------3--|
 ----4----4-----------4--|--L--6--5--0--1--0--3--0--|--0--0--0--3--0--0--0--3--|

E E E E E E E E Q E E E E E E E E E E E E E E
 
 --------------------------|-------------------------|--------------------------|
 --------------------------|-------------------------|--------------------------|
 --------------------------|-------------------------|--------------------------|
 -----8--7-----3-----5-----|--2----------------------|-----8--7-----3-----5-----|
 -----6--5-----1-----3-----|--0----------------------|-----6--5-----1-----3-----|
 --0--6--5--0--1--0--3--0--|--0----0--0--0--0--0--0--|--0--6--5--0--1--0--3--0--|

E E E E E E E E E E E E E E E E Q E E E E E E
 
 --------------------------|--------------------------|-------------------------|
 --------------------------|--------------------------|-------------------------|
 --------------------------|--------------------------|-------------------------|
 -----------5-----------5--|-----8--7-----3-----5-----|--2----------------------|
 -----------3-----------3--|-----6--5-----1-----3-----|--0----------------------|
 --0--0--0--3--0--0--0--3--|--0--6--5--0--1--0--3--0--|--0----0--0--0--0--0--0--|

[E] [E] [E] [E] [E] [E] [E] [E] [E] [E] [E] [E] [E] [E] [E] [E]  
 
 --------------------------|--------------------------|
 --------------------------|--------------------------|
 --------------------------|--------------------------|
 -----8--7-----3-----5-----|-----------5-----------5--|
 -----6--5-----1-----3-----|-----------3-----------3--|
 --0--6--5--0--1--0--3--0--|--0--0--0--3--0--0--0--3--|

E E E E E E E E Q E E E E E E E E E E E E E E
 
 --------------------------|-------------------------|--------------------------|
 --------------------------|-------------------------|--------------------------|
 --------------------------|-------------------------|--------------------------|
 -----8--7-----3-----5-----|--2----------------------|-----8--7-----3-----5-----|
 -----6--5-----1-----3-----|--0----------------------|-----6--5-----1-----3-----|
 --0--6--5--0--1--0--3--0--|--0----0--0--0--0--0--0--|--0--6--5--0--1--0--3--0--|

E E E E E E E E E E E E E E E E Q E E E E E E
 
 --------------------------|--------------------------|-------------------------|
 --------------------------|--------------------------|-------------------------|
 --------------------------|--------------------------|-------------------------|
 -----------5-----------5--|-----8--7-----3-----5-----|--2----------------------|
 -----------3-----------3--|-----6--5-----1-----3-----|--0----------------------|
 --0--0--0--3--0--0--0--3--|--0--6--5--0--1--0--3--0--|--0----0--0--0--0--0--0--|

[E] [E] [E] [E] [E] [E] [E] [E] [E] [E] [E] [E] [E] [E] [E] [E]  
 
 --------------------------|--------------------------|
 --------------------------|--------------------------|
 --------------------------|--------------------------|
 -----8--7-----3-----5-----|-----------5-----------5--|
 -----6--5-----1-----3-----|-----------3-----------3--|
 --0--6--5--0--1--0--3--0--|--0--0--0--3--0--0--0--3--|

E E E E E E E E Q E E E E E E E E E E E E E E
 
 --------------------------|-------------------------|--------------------------|
 --------------------------|-------------------------|--------------------------|
 --------------------------|-------------------------|--------------------------|
 -----8--7-----3-----5-----|--2----------------------|-----8--7-----3-----5-----|
 -----6--5-----1-----3-----|--0----------------------|-----6--5-----1-----3-----|
 --0--6--5--0--1--0--3--0--|--0----0--0--0--0--0--0--|--0--6--5--0--1--0--3--0--|

E E E E E E E E E E E E E E E E Q E E E E E E
 
 --------------------------|--------------------------|-------------------------|
 --------------------------|--------------------------|-------------------------|
 --------------------------|--------------------------|-------------------------|
 -----------5-----------5--|-----8--7-----3-----5-----|--2----------------------|
 -----------3-----------3--|-----6--5-----1-----3-----|--0----------------------|
 --0--0--0--3--0--0--0--3--|--0--6--5--0--1--0--3--0--|--0----0--0--0--0--0--0--|

[E] [E] [E] [E] [E] [E] [E] [E] [E] [E] [E] [E] [E] [E] [E] [E]  
 
 --------------------------|--------------------------|
 --------------------------|--------------------------|
 --------------------------|--------------------------|
 -----8--7-----3-----5-----|-----------5-----------5--|
 -----6--5-----1-----3-----|-----------3-----------3--|
 --0--6--5--0--1--0--3--0--|--0--0--0--3--0--0--0--3--|

E E E E E E E E Q E E E E E E E E E E E E E E
 
 --------------------------|-------------------------|--------------------------|
 --------------------------|-------------------------|--------------------------|
 --------------------------|-------------------------|--------------------------|
 -----8--7-----3-----5-----|--2----------------------|-----8--7-----3-----5-----|
 -----6--5-----1-----3-----|--0----------------------|-----6--5-----1-----3-----|
 --0--6--5--0--1--0--3--0--|--0----0--0--0--0--0--0--|--0--6--5--0--1--0--3--0--|

E E E E E E E E E E E E E E E E Q E E E E E E
 
 --------------------------|--------------------------|-------------------------|
 --------------------------|--------------------------|-------------------------|
 --------------------------|--------------------------|-------------------------|
 -----------5-----------5--|-----8--7-----3-----5-----|--2----------------------|
 -----------3-----------3--|-----6--5-----1-----3-----|--0----------------------|
 --0--0--0--3--0--0--0--3--|--0--6--5--0--1--0--3--0--|--0----0--0--0--0--0--0--|

E H Q E
 
 ----------------------|-----|-----|-----|-----|-----|-----|-----||
 ----------------------|-----|-----|-----|-----|-----|-----|-----||
 ----------------------|-----|-----|-----|-----|-----|-----|-----||
 ----------------------|-----|-----|-----|-----|-----|-----|-----||
 ----------------------|-----|-----|-----|-----|-----|-----|-----||
 --0-------------------|-----|-----|-----|-----|-----|-----|-----||


Important: The song above is NOT stored on the Chordie server. The original song is hosted at www.azchords.com. Chordie works as a search engine and provides on-the-fly formatting. Chordie does not index songs against artists'/composers' will. To remove this song please click here.

Text color:
Chord color:
Chord grids: 
Font size:    
Page size: 

E
Rate #1 of 1 versions

Jango Player

Login - add to songbook

SHARE PAGE  



You need to log in to post comments