Guitar Tabs, Chords and Lyrics
Server problems seems to be fixed. Chordie has been experiencing problems with songs disappearing. These issues now seems to be fixed, but still verifying the fix. If you find anything strange, please email admin@chordie.com.


The Night at Catafalque Manor   Cradle of Filth

 
 D|---------------------------------------------------------------|
 A|---------------------------------------------------------------|
 F|--^------------------------------------------------------------|
 C|-7/10-10-10-10-10-10-10-9-9-7-7-7-7-7-7-7-7-7--9--9--9--9--9---|
 G|-0-----0--0--0--0--0--0-0-0-0-0-0-0-0-0-0-0-8/10-10-10-10-10---|
 D|---------------------------------------------------------------|
 D|------------------------------------------------------------------|
 A|------------------------------------------------------------------|
 F|------------------------------------------------------------------|
 C|-9/12-12-12-12-12-12-12-12-10-10-9-9-7-7-7-7-7-7-7--9--9--9--9--9-|
 G|-0-----0--0--0--0--0--0--0--0--0-0-0-0-0-0-0-0-0-8/10-10-10-10-10-|
 D|------------------------------------------------------------------|
 D|-------------------------------------------------|
 A|-------------------------------------------------|
 F|-------------------------------------------------|
 C|-10/14-14-14-14-14-14-14-12-12-10-10-9-9-9-9-9-9-|
 G|--0-----0--0--0--0--0--0--0--0--0--0-0-0-0-0-0-0-|
 D|-------------------------------------------------|
 D|-------------------------------------------------------------------|
 A|-------------------------------------------------------------------|
 F|-------------------------------------------------------------------|
 C|-------------------------------------------------------------------|
 G|-10-10-10-10-10-10-5-5-5-5-5-5-5-5-5-5-5-5-3-3-3-3-3-3-2-2-2-2-2-2-|
 D|--8--8--8--8--8--8-3-3-3-3-3-3-3-3-3-3-3-3-1-1-1-1-1-1-0-0-0-0-0-0-|
 D|---------------------------------------------------------------|
 A|---------------------------------------------------------------|
 F|--^------------------------------------------------------------|
 C|-7/10-10-10-10-10-10-10-9-9-7-7-7-7-7-7-7-7-7--9--9--9--9--9---|
 G|-0-----0--0--0--0--0--0-0-0-0-0-0-0-0-0-0-0-8/10-10-10-10-10---|
 D|---------------------------------------------------------------|
 D|------------------------------------------------------------------|
 A|------------------------------------------------------------------|
 F|------------------------------------------------------------------|
 C|-9/12-12-12-12-12-12-12-12-10-10-9-9-7-7-7-7-7-7-7--9--9--9--9--9-|
 G|-0-----0--0--0--0--0--0--0--0--0-0-0-0-0-0-0-0-0-8/10-10-10-10-10-|
 D|------------------------------------------------------------------|
 D|-------------------------------------------------|
 A|-------------------------------------------------|
 F|-------------------------------------------------|
 C|-10/14-14-14-14-14-14-14-12-12-10-10-9-9-9-9-9-9-|
 G|--0-----0--0--0--0--0--0--0--0--0--0-0-0-0-0-0-0-|
 D|-------------------------------------------------|
 D|-------------------------------------------------------------------|
 A|-------------------------------------------------------------------|
 F|-------------------------------------------------------------------|
 C|-------------------------------------------------------3-3-3-3-3-3-|
 G|-10-10-10-10-10-10-5-5-5-5-5-5-5-5-5-5-5-5-3-3-3-3-3-3-1-1-1-1-1-1-|
 D|--8--8--8--8--8--8-3-3-3-3-3-3-3-3-3-3-3-3-1-1-1-1-1-1-------------|
 D|---------------------------------------------------------------|
 A|---------------------------------------------------------------|
 F|--^------------------------------------------------------------|
 C|-7/10-10-10-10-10-10-10-9-9-7-7-7-7-7-7-7-7-7--9--9--9--9--9---|
 G|-0-----0--0--0--0--0--0-0-0-0-0-0-0-0-0-0-0-8/10-10-10-10-10---|
 D|---------------------------------------------------------------|
 D|------------------------------------------------------------------|
 A|------------------------------------------------------------------|
 F|------------------------------------------------------------------|
 C|-9/12-12-12-12-12-12-12-12-10-10-9-9-7-7-7-7-7-7-7--9--9--9--9--9-|
 G|-0-----0--0--0--0--0--0--0--0--0-0-0-0-0-0-0-0-0-8/10-10-10-10-10-|
 D|------------------------------------------------------------------|
 D|-------------------------------------------------|
 A|-------------------------------------------------|
 F|-------------------------------------------------|
 C|-10/14-14-14-14-14-14-14-12-12-10-10-9-9-9-9-9-9-|
 G|--0-----0--0--0--0--0--0--0--0--0--0-0-0-0-0-0-0-|
 D|-------------------------------------------------|
 D|-------------------------------------------------------------------|
 A|-------------------------------------------------------------------|
 F|-------------------------------------------------------------------|
 C|-------------------------------------------------------------------|
 G|-10-10-10-10-10-10-5-5-5-5-5-5-5-5-5-5-5-5-3-3-3-3-3-3-2-2-2-2-2-2-|
 D|--8--8--8--8--8--8-3-3-3-3-3-3-3-3-3-3-3-3-1-1-1-1-1-1-0-0-0-0-0-0-|
 D|---------------------------------------------------------------|
 A|---------------------------------------------------------------|
 F|--^------------------------------------------------------------|
 C|-7/10-10-10-10-10-10-10-9-9-7-7-7-7-7-7-7-7-7--9--9--9--9--9---|
 G|-0-----0--0--0--0--0--0-0-0-0-0-0-0-0-0-0-0-8/10-10-10-10-10---|
 D|---------------------------------------------------------------|
 D|------------------------------------------------------------------|
 A|------------------------------------------------------------------|
 F|------------------------------------------------------------------|
 C|-9/12-12-12-12-12-12-12-12-10-10-9-9-7-7-7-7-7-7-7--9--9--9--9--9-|
 G|-0-----0--0--0--0--0--0--0--0--0-0-0-0-0-0-0-0-0-8/10-10-10-10-10-|
 D|------------------------------------------------------------------|
 D|-------------------------------------------------|
 A|-------------------------------------------------|
 F|-------------------------------------------------|
 C|-10/14-14-14-14-14-14-14-12-12-10-10-9-9-9-9-9-9-|
 G|--0-----0--0--0--0--0--0--0--0--0--0-0-0-0-0-0-0-|
 D|-------------------------------------------------|
 D|-----------------------------------------------------------------|
 A|-----------------------------------------------------------------|
 F|-----------------------------------------------------------------|
 C|-------------------------------------------------------3---3---3-|
 G|-10-10-10-10-10-10-5-5-5-5-5-5-5-5-5-5-5-5-3---3---3---1---1---1-|
 D|--8--8--8--8--8--8-3-3-3-3-3-3-3-3-3-3-3-3-1---1---1-------------|

 


 


 


 


 0:40


 


 

 
 D|-----------------------------------------------------------------------------------|
 A|-----------------------------------------------------------------------------------|
 F|---------------------------------------------------5-5-5-5-5-5-5-5-8-8-8-8-8-8-8-8-|
 C|-------------------------5-1-1-4-------------------5-5-5-5-5-5-5-5-8-8-8-8-8-8-8-8-|
 G|---2---2-3-2---2-5-2---2-5-1-1-4----2---2-3-2---2--3-3-3-3-3-3-3-3-6-6-6-6-6-6-6-6-|
 D|-0-0---0-1-0---0-3-0---0----------0-0---0-1-0---0----------------------------------|

 


 * *


 


 


 

 
 D|-------------------------------------------------|L---------------------------------|
 A|-------------------------------------------------|----------------------------------|
 F|-------------------------------------------------|----------------------------------|
 C|-------------------------5-1-1-4-----------------|----------------------------------|
 G|---2---2-3-2---2-5-2---2-5-1-1-4----2---2-3-2---2|--3-3-3-3-3-3-3-3-2-2-2-2-2-2-2-2-|
 D|-0-0---0-1-0---0-3-0---0----------0-0---0-1-0---0|----------------------------------|

 


 * * R


 

 
 |----------------------------------|
 |----------------------------------|
 |----------------------------------|
 |-5-5-5-5-5-5-5-5------------------|
 |-----------------6-6-6-6-6-6-6-6--|
 |----------------------------------|

 


 


 L


 

 
 D|------------------------------------------------------------------|
 A|------------------------------------------------------------------|
 F|------------------------------------------------------------------|
 C|------------------------------------------------------------------|
 G|-------------------------------------------------5-5-1-1-1-1-4-4--|
 D|-0-0-0-0-1-0-0-0-3-0-0-0-0-0-1-0-0-0-3-0-0-0-0-0------------------|

 


 * * * * * * * * * * * * * * * * * * * * * * * * * * * * * * * *


 R


 

 
 D|---------------------------------------------------------------------|
 A|---------------------------------------------------------------------|
 F|---------------------------------------------------------------------|
 C|---------------------------------------------------------------------|
 G|-7-7-7-7-8-7-7-7-10-7-7-7-7-7-8-7-7-7-10-7-7-7-7-7-10-10-6-6-6-6-8-8-|
 D|---------------------------------------------------------------------|

 


 * * * * * * * * * * * * * * * * * * * * * * * * * * * * * * * *


 


 


 


 


 0:50


 


 L


 

 
 D|------------------------------------------------------------------------|
 A|------------------------------------------------------------------------|
 F|------------------------------------------------------------------------|
 C|---------------------------------------------------5--5-5--5--8--8-8--8-|
 G|---------------------------------------------------3--3-3--3--6--6-6--6-|
 D|-0-0-0-0-1-0-0-0-3-0-0-0-0-0-1-0-0-0-3-0-0-0-0-0-0----------------------|

 


 * * * * * * * * * * * * * * * * * * * * * * * * *


 R


 

 
 D|--------------------------------------------------------------------------|
 A|--------------------------------------------------------------------------|
 F|--------------------------------------------------------------------------|
 C|-----------------------------------------------------5--5-5--5--8--8-8--8-|
 G|-7-7-7-7-8-7-7-7-10-7-7-7-7-7-8-7-7-7-10-7-7-7-7-7-7-3--3-3--3--6--6-6--6-|
 D|--------------------------------------------------------------------------|

 


 * * * * * * * * * * * * * * * * * * * * * * * * *


 


 L


 

 
 D|------------------------------------------------------------------|
 A|------------------------------------------------------------------|
 F|------------------------------------------------------------------|
 C|------------------------------------------------------------------|
 G|-------------------------------------------------5-5-1-1-1-1-4-4--|
 D|-0-0-0-0-1-0-0-0-3-0-0-0-0-0-1-0-0-0-3-0-0-0-0-0------------------|

 


 * * * * * * * * * * * * * * * * * * * * * * * * * * * * * * * *


 


 R


 

 
 D|---------------------------------------------------------------------|
 A|---------------------------------------------------------------------|
 F|---------------------------------------------------------------------|
 C|---------------------------------------------------------------------|
 G|-7-7-7-7-8-7-7-7-10-7-7-7-7-7-8-7-7-7-10-7-7-7-7-7-10-10-6-6-6-6-8-8-|
 D|---------------------------------------------------------------------|

 


 * * * * * * * * * * * * * * * * * * * * * * * * * * * * * * * *


 


 


 L


 

 
 D|---------------------------------------------------------------------|
 A|---------------------------------------------------------------------|
 F|---------------------------------------------------------------------|
 C|---------------------------------------------------5--5-5---4--4-4---|
 G|---------------------------------------------------3--3-3---2--2-2---|
 D|-0-0-0-0-1-0-0-0-3-0-0-0-0-0-1-0-0-0-3-0-0-0-0-0-0-------------------|

 


 * * * * * * * * * * * * * * * * * * * * * * * * *


 


 R


 

 
 D|----------------------------------------------------------------------|
 A|----------------------------------------------------------------------|
 F|----------------------------------------------------------------------|
 C|-----------------------------------------------------5--5-5---4--4-4--|
 G|-7-7-7-7-8-7-7-7-10-7-7-7-7-7-8-7-7-7-10-7-7-7-7-7-7-3--3-3---2--2-2--|
 D|----------------------------------------------------------------------|

 


 * * * * * * * * * * * * * * * * * * * * * * * * *


 


 


 


 


 1:02


 


 


 

 
 D|-----------------------------------------------------------|
 A|------___-----------------____---------___-----------------|
 F|-----/ \-------^-------/ \-------/ \-------^-----10-|
 C|----8-7-8-7----10-9----10-9-11-10----8-7-8-7----10-7----10-|
 G|-00---------00------00------------00---------00------00----|
 D|-----------------------------------------------------------|

 


 ** ** ** ** ** **


 


 

 
 D|-----------------------------------------------|
 A|------___-----------------____-----------------|
 F|-----/ \-------^-------/ \----7-----3-----|
 C|----8-7-8-7----10-9----10-9-11-10--7-----3-----|
 G|-00---------00------00-------------5-----1-----|
 D|-----------------------------------------------|

 


 ** ** **


 


 

 
 D|-----------------------------------------------------------|
 A|------___-----------------____---------___-----------------|
 F|-----/ \-------^-------/ \-------/ \-------^-----10-|
 C|----8-7-8-7----10-9----10-9-11-10----8-7-8-7----10-7----10-|
 G|-00---------00------00------------00---------00------00----|
 D|-----------------------------------------------------------|

 


 ** ** ** ** ** **


 


 

 
 D|---------------------------------------------|
 A|-----___-----------------____----------------|
 F|----/ \-------^-------/ \---3-3-3-4-4-4-|
 C|---8-7-8-7----10-9----10-9-11-10-3-3-3-4-4-4-|
 G|00---------00------00------------1-1-1-2-2-2-|
 D|---------------------------------------------|

 


 ** ** **


 


 


 


 1:12


 


 

 
 D|-----------------------------------------------------------------------------------|
 A|-----------------------------------------------------------------------------------|
 F|---------------------------------------------------5-5-5-5-5-5-5-5-8-8-8-8-8-8-8-8-|
 C|-------------------------5-1-1-4-------------------5-5-5-5-5-5-5-5-8-8-8-8-8-8-8-8-|
 G|---2---2-3-2---2-5-2---2-5-1-1-4----2---2-3-2---2--3-3-3-3-3-3-3-3-6-6-6-6-6-6-6-6-|
 D|-0-0---0-1-0---0-3-0---0----------0-0---0-1-0---0----------------------------------|

 


 * *


 


 

 
 D|----------------------------------------------------------------------|
 A|----------------------------------------------------------------------|
 F|----------------------------------------------------------------------|
 C|-------------------------5-1-1-4-------------------5---5--5--4-5-4-5--|
 G|---2---2-3-2---2-5-2---2-5-1-1-4----2---2-3-2---2--3---3--3--2/3-2/3--|
 D|-0-0---0-1-0---0-3-0---0----------0-0---0-1-0---0---------------------|

 


 * *


 


 

 
 D|------------------------------------------------------------|
 A|------------------------------------------------------------|
 F|------------------------------------------------------------|
 C|---------------------------------------------------------4--|
 G|-1-1-1-1-1-1-1-1-1-1-1-1-1-1-1-1-1-1-1-1-1-1-1-1-4-1-1-1-2--|
 D|------------------------------------------------------------|

 


 * * * * * * * * * * * * * * * * * * * * * * * * *


 


 L


 

 
 D|---------------------------------------------------------|
 A|---------------------------------------------------------|
 F|------------------------------------_------__------------|
 C|-----------------------------------/ \----/ \-----------|
 G|-1-1-1-1-1-1-1-1-1-1-1-1-1-1-1-1--6-4-6--11-9-11--14-13~-|
 D|---------------------------------------------------------|

 


 * * * * * * * * * * * * * * * *


 R


 

 
 D|--------------------------------------------------------|
 A|-----------------------------------_------_-------------|
 F|----------------------------------/ \----/ \------------|
 C|---------------------------------4-3-4--9-8-9--13-11~---|
 G|-1-1-1-1-1-1-1-1-1-1-1-1-1-1-1-1------------------------|
 D|--------------------------------------------------------|

 


 * * * * * * * * * * * * * * * *


 


 


 

 
 D|-----------------------------------------|
 A|-----------------------------------------|
 F|-----------------------------------------|
 C|---------------------------------^----4--|
 G|-1--1-1-1--1--1-1-1--1--1-1-1-1-4-1-1-2--|
 D|-----------------------------------------|

 


 * * * * * * * * * * * * * *


 


 


 L


 

 
 D|-------------------------------------------|
 A|-------------------------------------------|
 F|-------------------------------------------|
 C|-3--3-3-3-3-4--4-4-4-4-6--6-6-6-6-8-10-10--|
 G|-1--1-1-1-1-2--2-2-2-2-4--4-4-4-4-6--8--8--|
 D|-------------------------------------------|

 


 


 R


 

 
 D|---------------------------------------------------|
 A|---------------------------------------------------|
 F|-6--6-6-6-6-8--8-8-8-8-10--10-10-10-10--11--12-12--|
 C|-X--X-X-X-X-X--X-X-X-X--X---X--X--X--X---X---X--X--|
 G|-4--4-4-4-4-6--6-6-6-6--8---8--8--8--8---9--10-10--|
 D|---------------------------------------------------|

 


 


 


 


 


 1:32


 


 

 
 ------------------------------------------------------------------|
 ------------------------------------------------------------------|
 -10---8---8~----8---10---11---10-------11---10-------11---10---10~|
 -----------------------------------8-------------8----------------|
 ------------------------------------------------------------------|
 ------------------------------------------------------------------|
 ------------------------------------------------------------------|
 ------------------------------------------------------------------|
 ------------------------------------------------------------------|
 -8--------------8-------------------------------------------------|
 -6--------------6--------------------------------------8----------|
 -------------------------------------------------------6----------|

 


 |


 


 

 
 --------------------------------------------------------------------------------------|
 ------------------------------------------------------------------9-------------------|
 -8---10---11---10-------11---10-------10---8---8~----8---10---11------11---10---8---6-|
 --------------------11------------11--------------------------------------------------|
 --------------------------------------------------------------------------------------|
 --------------------------------------------------------------------------------------|
 --------------------------------------------------------------------------------------|
 --------------------------------------------------------------------------------------|
 --------------------------------------------------------------------------------------|
 --------------------------------------------------------------11-----------10---------|
 -----------8-------------8-------------9-----------------------9------------8---------|
 -----------6-------------6-------------7----------------------------------------------|

 


 


 


 1:40- 1:32 RIFF REPEATS ALL TREMELO PICKED


 


 


 


 1:48


 [1]  

 
 D|------------------------------------------------------------------|
 A|------------------------------------------------------------------|
 F|-10---8---8~----8---10---11---10-------11---10-------11---10---10~|
 C|-----------------------------------8-------------8----------------|
 G|------------------------------------------------------------------|
 D|------------------------------------------------------------------|

 


 


 [2]  

 
 D|---------------------6----7---9----------7---6-------7----6-------|
 A|--9---7---7~----9------------------7-------------7-------------9~-|
 F|------------------------------------------------------------------|
 C|------------------------------------------------------------------|
 G|------------------------------------------------------------------|
 D|------------------------------------------------------------------|

 


 


 [1]  

 
 D|--------------------------------------------------------------------------------------|
 A|------------------------------------------------------------------9-------------------|
 F|-8---10---11---10-------11---10-------10---8---8~----8---10---11------11---10---8---6-|
 C|--------------------11------------11--------------------------------------------------|
 G|--------------------------------------------------------------------------------------|
 D|--------------------------------------------------------------------------------------|

 


 


 [2]  

 
 D|-----------6-------------7---6-------------6------------------6---7---6-------------|
 A|-7---9----------9---6-------------9----9-------7~----7---9---------------9---7---6--|
 F|------------------------------------------------------------------------------------|
 C|------------------------------------------------------------------------------------|
 G|------------------------------------------------------------------------------------|
 D|------------------------------------------------------------------------------------|

 


 


 


 


 1:56


 


 

 
 D|--------------------------------------------------|
 A|--------------------------------------------------|
 F|-8-8-8-8-8-8-8-8-8-8-8-8-8-8-8-8-8-8-8-8-8-8-8-8--|
 C|-8-8-8-8-8-8-8-8-8-8-8-8-8-8-8-8-8-8-8-8-8-8-8-8--|
 G|-6-6-6-6-6-6-6-6-6-6-6-6-6-6-6-6-6-6-6-6-6-6-6-6--|
 D|--------------------------------------------------|
 D|--------------------------------------------------|
 A|--------------------------------------------------|
 F|-8-8-8-8-8-8-8-8-8-8-8-8-8-8-8-8-8-8-8-8-8-8-8-8--|
 C|-8-8-8-8-8-8-8-8-8-8-8-8-8-8-8-8-8-8-8-8-8-8-8-8--|
 G|-6-6-6-6-6-6-6-6-6-6-6-6-6-6-6-6-6-6-6-6-6-6-6-6--|
 D|--------------------------------------------------|
 D|--------------------------------------------------|
 A|--------------------------------------------------|
 F|-6-6-6-6-6-6-6-6-6-6-6-6-6-6-6-6-6-6-6-6-6-6-6-6--|
 C|-6-6-6-6-6-6-6-6-6-6-6-6-6-6-6-6-6-6-6-6-6-6-6-6--|
 G|-4-4-4-4-4-4-4-4-4-4-4-4-4-4-4-4-4-4-4-4-4-4-4-4--|
 D|--------------------------------------------------|
 D|-------------------------------------------------------|
 A|-------------------------------------------------------|
 F|-8-8-8-8-8-8-9-9-9-9-9-9-11-11-11-11-11-11-6-6-6-6-6-6-|
 C|-8-8-8-8-8-8-9-9-9-9-9-9-11-11-11-11-11-11-6-6-6-6-6-6-|
 G|-6-6-6-6-6-6-7-7-7-7-7-7--9--9--9--9--9--9-4-4-4-4-4-4-|
 D|-------------------------------------------------------|
 D|--------------------------------------------------|
 A|--------------------------------------------------|
 F|-8-8-8-8-8-8-8-8-8-8-8-8-8-8-8-8-8-8-8-8-8-8-8-8--|
 C|-8-8-8-8-8-8-8-8-8-8-8-8-8-8-8-8-8-8-8-8-8-8-8-8--|
 G|-6-6-6-6-6-6-6-6-6-6-6-6-6-6-6-6-6-6-6-6-6-6-6-6--|
 D|--------------------------------------------------|
 D|--------------------------------------------------|
 A|--------------------------------------------------|
 F|-8-8-8-8-8-8-8-8-8-8-8-8-8-8-8-8-8-8-8-8-8-8-8-8--|
 C|-8-8-8-8-8-8-8-8-8-8-8-8-8-8-8-8-8-8-8-8-8-8-8-8--|
 G|-6-6-6-6-6-6-6-6-6-6-6-6-6-6-6-6-6-6-6-6-6-6-6-6--|
 D|--------------------------------------------------|
 D|--------------------------------------------------|
 A|--------------------------------------------------|
 F|-6-6-6-6-6-6-6-6-6-6-6-6-6-6-6-6-6-6-6-6-6-6-6-6--|
 C|-6-6-6-6-6-6-6-6-6-6-6-6-6-6-6-6-6-6-6-6-6-6-6-6--|
 G|-4-4-4-4-4-4-4-4-4-4-4-4-4-4-4-4-4-4-4-4-4-4-4-4--|
 D|--------------------------------------------------|
 D|--------------------------------------------------|
 A|--------------------------------------------------|
 F|-4-4-4-4-4-4-4-4-4-4-4-4-6-6-6-6-6-6-6-6-6-6-6-6--|
 C|-4-4-4-4-4-4-4-4-4-4-4-4-6-6-6-6-6-6-6-6-6-6-6-6--|
 G|-2-2-2-2-2-2-2-2-2-2-2-2-4-4-4-4-4-4-4-4-4-4-4-4--|
 D|--------------------------------------------------|

 


 


 


 


 2:16


 


 [1]  

 
 D|------------------------------------------------------------------|
 A|------------------------------------------------------------------|
 F|-10---8---8~----8---10---11---10-------11---10-------11---10---10~|
 C|-----------------------------------8-------------8----------------|
 G|------------------------------------------------------------------|
 D|------------------------------------------------------------------|

 


 


 [2]  

 
 D|---------------------6----7---9----------7---6-------7----6-------|
 A|--9---7---7~----9------------------7-------------7-------------9~-|
 F|------------------------------------------------------------------|
 C|------------------------------------------------------------------|
 G|------------------------------------------------------------------|
 D|------------------------------------------------------------------|

 


 


 [1]  

 
 D|--------------------------------------------------------------------------------------|
 A|------------------------------------------------------------------9-------------------|
 F|-8---10---11---10-------11---10-------10---8---8~----8---10---11------11---10---8---6-|
 C|--------------------11------------11--------------------------------------------------|
 G|--------------------------------------------------------------------------------------|
 D|--------------------------------------------------------------------------------------|

 


 


 [2]  

 
 D|-----------6-------------7---6-------------6------------------6---7---6-------------|
 A|-7---9----------9---6-------------9----9-------7~----7---9---------------9---7---6--|
 F|------------------------------------------------------------------------------------|
 C|------------------------------------------------------------------------------------|
 G|------------------------------------------------------------------------------------|
 D|------------------------------------------------------------------------------------|
 D|------------------------------------------------------------------|
 A|------------------------------------------------------------------|
 F|-10---8---8~----8---10---11---10-------11---10-------11---10---10~|
 C|-----------------------------------8-------------8----------------|
 G|------------------------------------------------------------------|
 D|------------------------------------------------------------------|

 


 


 [2]  

 
 D|---------------------6----7---9----------7---6-------7----6-------|
 A|--9---7---7~----9------------------7-------------7-------------9~-|
 F|------------------------------------------------------------------|
 C|------------------------------------------------------------------|
 G|------------------------------------------------------------------|
 D|------------------------------------------------------------------|

 


 


 [1]  

 
 D|--------------------------------------------------------------------------------------|
 A|------------------------------------------------------------------9-------------------|
 F|-8---10---11---10-------11---10-------10---8---8~----8---10---11------11---10---8---6-|
 C|--------------------11------------11--------------------------------------------------|
 G|--------------------------------------------------------------------------------------|
 D|--------------------------------------------------------------------------------------|

 


 


 [2]  

 
 D|-----------6-------------7---6-------------6------------------6---7---6-------------|
 A|-7---9----------9---6-------------9----9-------7~----7---9---------------9---7---6--|
 F|------------------------------------------------------------------------------------|
 C|------------------------------------------------------------------------------------|
 G|------------------------------------------------------------------------------------|
 D|------------------------------------------------------------------------------------|

 


 


 


 [1]  

 
 D|----------------------------------|
 A|----------------------------------|
 F|--11-10-8-------------------------|
 C|----------11-9-8-11-9-8-----------|
 G|------------------------11-9-8----|
 D|----------------------------------|

 


 


 [2]  

 
 D|----------------------------------|
 A|--11-9-7--------------------------|
 F|---------10-8-6-10-8-6------------|
 C|-----------------------9-8-6------|
 G|----------------------------------|
 D|----------------------------------|

 


 


 


 


 


 2:34


 


 

 
 D|---------------------------------------------------------------|
 A|---------------------------------------------------------------|
 F|-7/10-10-10-10-10-10-10-9-9-7-7-7-7-7-7-7-7-7--9--9--9--9--9---|
 C|-0-----0--0--0--0--0--0-0-0-0-0-0-0-0-0-0-0-8/10-10-10-10-10---|
 G|---------------------------------------------------------------|
 D|---------------------------------------------------------------|
 D|------------------------------------------------------------------|
 A|------------------------------------------------------------------|
 F|-9/12-12-12-12-12-12-12-12-10-10-9-9-7-7-7-7-7-7-7--9--9--9--9--9-|
 C|-0-----0--0--0--0--0--0--0--0--0-0-0-0-0-0-0-0-0-8/10-10-10-10-10-|
 G|------------------------------------------------------------------|
 D|------------------------------------------------------------------|
 D|-------------------------------------------------|
 A|-------------------------------------------------|
 F|-10/14-14-14-14-14-14-14-12-12-10-10-9-9-9-9-9-9-|
 C|--0-----0--0--0--0--0--0--0--0--0--0-0-0-0-0-0-0-|
 G|-------------------------------------------------|
 D|-------------------------------------------------|
 D|---------------------------------------------------------------------|
 A|---------------------------------------------------------------------|
 F|-10-10-10-10-10-10-5-5-5-5-5-5-5-5-5-5-5-5-5-5-5-5-5-5-5-5-5-5-5-5-5-|
 C|-10-10-10-10-10-10-5-5-5-5-5-5-5-5-5-5-5-5-5-5-5-5-5-5-5-5-5-5-5-5-5-|
 G|--8--8--8--8--8--8-3-3-3-3-3-3-3-3-3-3-3-3-3-3-3-3-3-3-3-3-3-3-3-3-3-|
 D|---------------------------------------------------------------------|

 


 


 


 


 2:43


 


 

 
 D|---------------------------------------------------------------|
 A|---------------------------------------------------------------|
 F|--^------------------------------------------------------------|
 C|-7/10-10-10-10-10-10-10-9-9-7-7-7-7-7-7-7-7-7--9--9--9--9--9---|
 G|-0-----0--0--0--0--0--0-0-0-0-0-0-0-0-0-0-0-8/10-10-10-10-10---|
 D|---------------------------------------------------------------|
 D|----------------------------------------------------------------------|
 A|----------------------------------------------------------------------|
 F|----------------------------------------------------------------------|
 C|-9/12-12-12-12-12-12-12-12-10-10-9-9-9-9-9-9-9-9-9-9-7--9--9--9--9--9-|
 G|-0-----0--0--0--0--0--0--0--0--0-0-0-0-0-0-0-0-0-0-0-8/10-10-10-10-10-|
 D|----------------------------------------------------------------------|
 D|-------------------------------------------------|
 A|-------------------------------------------------|
 F|--8-12-12-12-12-12-12-12-------------------------|
 C|-10/14-14-14-14-14-14-14-12-12-10-10-9-9-9-9-9-9-|
 G|--0-----0--0--0--0--0--0--0--0--0--0-0-0-0-0-0-0-|
 D|-------------------------------------------------|
 D|-------------------------------------------------------------------|
 A|-------------------------------------------------------------------|
 F|-------------------------------------------------------------------|
 C|-------------------------------------------------------------------|
 G|-10-10-10-10-10-10-5-5-5-5-5-5-5-5-5-5-5-5-3-3-3-3-3-3-2-2-2-2-2-2-|
 D|--8--8--8--8--8--8-3-3-3-3-3-3-3-3-3-3-3-3-1-1-1-1-1-1-0-0-0-0-0-0-|
 D|---------------------------------------------------------------|
 A|---------------------------------------------------------------|
 F|--^------------------------------------------------------------|
 C|-7/10-10-10-10-10-10-10-9-9-7-7-7-7-7-7-7-7-7--9--9--9--9--9---|
 G|-0-----0--0--0--0--0--0-0-0-0-0-0-0-0-0-0-0-8/10-10-10-10-10---|
 D|---------------------------------------------------------------|
 D|------------------------------------------------------------------|
 A|------------------------------------------------------------------|
 F|------------------------------------------------------------------|
 C|-9/12-12-12-12-12-12-12-12-10-10-9-9-7-7-7-7-7-7-7--9--9--9--9--9-|
 G|-0-----0--0--0--0--0--0--0--0--0-0-0-0-0-0-0-0-0-8/10-10-10-10-10-|
 D|------------------------------------------------------------------|
 D|-------------------------------------------------|
 A|-------------------------------------------------|
 F|-------------------------------------------------|
 C|-10/14-14-14-14-14-14-14-12-12-10-10-9-9-9-9-9-9-|
 G|--0-----0--0--0--0--0--0--0--0--0--0-0-0-0-0-0-0-|
 D|-------------------------------------------------|
 D|-------------------------------------------------------------------|
 A|-------------------------------------------------------------------|
 F|-------------------------------------------------------------------|
 C|-------------------------------------------------------3-3-3-3-3-3-|
 G|-10-10-10-10-10-10-5-5-5-5-5-5-5-5-5-5-5-5-3-3-3-3-3-3-1-1-1-1-1-1-|
 D|--8--8--8--8--8--8-3-3-3-3-3-3-3-3-3-3-3-3-1-1-1-1-1-1-------------|
 D|---------------------------------------------------------------|
 A|---------------------------------------------------------------|
 F|--^------------------------------------------------------------|
 C|-7/10-10-10-10-10-10-10-9-9-7-7-7-7-7-7-7-7-7--9--9--9--9--9---|
 G|-0-----0--0--0--0--0--0-0-0-0-0-0-0-0-0-0-0-8/10-10-10-10-10---|
 D|---------------------------------------------------------------|
 D|------------------------------------------------------------------|
 A|------------------------------------------------------------------|
 F|------------------------------------------------------------------|
 C|-9/12-12-12-12-12-12-12-12-10-10-9-9-7-7-7-7-7-7-7--9--9--9--9--9-|
 G|-0-----0--0--0--0--0--0--0--0--0-0-0-0-0-0-0-0-0-8/10-10-10-10-10-|
 D|------------------------------------------------------------------|
 D|-------------------------------------------------|
 A|-------------------------------------------------|
 F|-------------------------------------------------|
 C|-10/14-14-14-14-14-14-14-12-12-10-10-9-9-9-9-9-9-|
 G|--0-----0--0--0--0--0--0--0--0--0--0-0-0-0-0-0-0-|
 D|-------------------------------------------------|
 D|-----------------------------|
 A|-----------------------------|
 F|-----------------------------|
 C|-----------------------------|
 G|-10-10-10-10-10-10-5------3--|
 D|--8--8--8--8--8--8-3------1--|

 


 


 


 [1]  

 
 D|--------------------------------------------------|
 A|--------------------------------------------------|
 F|--------------------------------------------------|
 C|--------------------------------------------------|
 G|---2--------7-----------------------------7\------|
 D|---0--------5-----------------------------5\------|

 


 


 [2]  

 
 D|--------------------------------------------------|
 A|--------------------------------------------------|
 F|--------------------------------------------------|
 C|--7---------10------------------------------------|
 G|------------------------------------------7\------|
 D|------------------------------------------5\------|

 


 


 


 


 


 


 3:50


 


 

 
 D|------------------------------------------------------------------------------|
 A|------------------------------------------------------------------------------|
 F|------------------------------------------------------------------------------|
 C|----------------------P--------------P----------P-----------------------------|
 G|---------6-6-6-6-7-----S---9--6-------S--7--3----S---3-6-------------6-6-6-6--|
 D|-4-4-4-4-4-4-4-4-5---------7--4----------5--1--------1-4-----4-4-4-4-4-4-4-4--|

 


 * * * * * * * *


 


 


 

 
 D|---------------------------------------------------------------|
 A|---------------------------------------------------------------|
 F|---------------------------------------------------------------|
 C|---------------------------------------------------------------|
 G|-7---7-7-7---7-7-7---7-7-7---9--6---6-6-6---6-6-6---6-6-6---7--|
 D|-5---5-5-5---5-5-5---5-5-5---7--4---4-4-4---4-4-4---4-4-4---5--|
 D|----------------------------------------------------------------|
 A|----------------------------------------------------------------|
 F|----------------------------------------------------------------|
 C|----------------------------------------------------------------|
 G|-3---3-3-3---3-3-3---3-3-3---3--6---6-6-6---6-6-6---6-6-6---6-6-|
 D|-1---1-1-1---1-1-1---1-1-1---1--4---4-4-4---4-4-4---4-4-4---4-4-|

 


 


 


 


 4:28


 


 [1]  

 
 D|-------------------------------------------------|
 A|-------------------------------------------------|
 F|-------------------------------------------------|
 C|----------6-----------7-----------6-----------7--|
 G|-5--7--8-----5--7--8-----5--7--8-----5--7--8-----|
 D|-------------------------------------------------|

 


 


 [2]  

 
 D|-------------------------------------------------|
 A|-------------------------------------------------|
 F|-------------------------------------------------|
 C|-------------------------------------------------|
 G|-12-----------------------------------------12---|
 D|-10-----------------------------------------10---|

 


 


 


 [1]  

 
 D|-------------------------------------------------|
 A|-------------------------------------------------|
 F|-------------------------------------------------|
 C|----------6-----------7-----------6-----------7--|
 G|----7--8--------7--8--------7--8--------7--8-----|
 D|-8-----------8-----------8-----------8-----------|

 


 


 [2]  

 
 D|-------------------------------------------------|
 A|-------------------------------------------------|
 F|-------------------------------------------------|
 C|-------------------------------------------------|
 G|-10----------------------------------------10----|
 D|--8-----------------------------------------8----|

 


 


 


 [1]  

 
 D|-------------------------------------------------|
 A|-------------------------------------------------|
 F|-------------------------------------------------|
 C|-------------------------------------------------|
 G|----5--7--8-----5--7--8-----5--7--8-----5--7--8--|
 D|-6-----------6-----------6-----------6-----------|

 


 


 [2]  

 
 D|-------------------------------------------------|
 A|-------------------------------------------------|
 F|-------------------------------------------------|
 C|-------------------------------------------------|
 G|-8------------------------------------------8----|
 D|-6------------------------------------------6----|

 


 


 


 [1]  

 
 D|-------------------------------------------------|
 A|-------------------------------------------------|
 F|-------------------------------------------------|
 C|-------------------------------------------------|
 G|----5--7--8-----5--7--8-----4--5--7-----4--5--7--|
 D|-5-----------5-----------5-----------5-----------|

 


 


 [2]  

 
 D|-------------------------------------------------|
 A|-------------------------------------------------|
 F|-------------------------------------------------|
 C|-------------------------------------------------|
 G|-7-----------------------------------------------|
 D|-5-------------------V---------------------------|

 


 


 


 


 


 4:44


 


 [1]  

 
 D|-------------------------------------------------|
 A|-------------------------------------------------|
 F|-7---------7-----7--9--7---------7-----7-9-------|
 C|---7----------7----------7----------7------------|
 G|-----8---------------------8---------------------|
 D|-------10--------------------10------------------|

 


 


 [2]  

 
 D|-------------------------------------------------|
 A|-------------------------------------------------|
 F|-------------------------------------------------|
 C|----------6-----------7-----------6-----------7--|
 G|-5--7--8-----5--7--8-----5--7--8-----5--7--8-----|
 D|-------------------------------------------------|

 


 


 


 [1]  

 
 D|-------------------------------------------------|
 A|-------------------------------------------------|
 F|-5-----------5-----7--9--5------------5-----7--9-|
 C|----7-----------7-----------7------------7-------|
 G|-------8-----------------------8-----------------|
 D|----------8-----------------------10-------------|

 


 


 [2]  

 
 D|-------------------------------------------------|
 A|-------------------------------------------------|
 F|-------------------------------------------------|
 C|----------6-----------7-----------6-----------7--|
 G|----7--8--------7--8--------7--8--------7--8-----|
 D|-8-----------8-----------8-----------8-----------|

 


 


 


 


 


 4:53


 


 [1]  

 
 D|---------------------------------------------------------------------------------|
 A|---------------------------------------------------------------------------------|
 F|-7----------------7---------------7---------------7---------------12--10--12--14-|
 C|-----7--8--10--8-----7--8--10--8-----7--8--10--8-----7--8--10--8-----------------|
 G|---------------------------------------------------------------------------------|
 D|---------------------------------------------------------------------------------|

 


 


 [2]  

 
 D|--------------------------------------------------------------------------|
 A|--------------------------------------------------------------------------|
 F|-14--------------14-------------14-------------14-------------------------|
 C|-----14-15-17-15----14-15-17-15----14-15-17-15----14-15-17-15---15---14---|
 G|--------------------------------------------------------------------------|
 D|--------------------------------------------------------------------------|

 


 


 


 


 5:01


 


 [1]  

 
 D|-------------------------------------------------------|
 A|-------------------------------------------------------|
 F|-7------------7------------7------------10---9---7-----|
 C|---8-7-8-10-8---8-7-8-10-8---8-7-8-10-8----7---7---7---|
 G|-------------------------------------------------------|
 D|-------------------------------------------------------|

 


 


 [2]  

 
 D|---------------------------------------------17----15----13----|
 A|---------------------------------------------------------------|
 F|---------------------------14----------------------------------|
 C|------------------------------15-14-15-17-15----15----15----15-|
 G|---------------------------------------------------------------|
 D|---------------------------------------------------------------|

 


 


 


 [1]  

 
 D|-------------------------------------------------|
 A|--///-----------///--///----///-------///--///---|
 F|--12-------------10---9-----10---------9----7----|
 C|-------------------------------------------------|
 G|-------------------------------------------------|
 D|-------------------------------------------------|

 


 


 [2]  

 
 D|-------------------------------------------------|
 A|-///-----------///--///----///-------///---///---|
 F|--17------------15--14-----15---------14---12----|
 C|-------------------------------------------------|
 G|-------------------------------------------------|
 D|-------------------------------------------------|

 


 


 


 [1]  

 
 D|---------------------------------------------------------------|
 A|---------------------------------------------------------------|
 F|---------------------------------------------------------------|
 C|-8---------8----8---------8----8---------8----10-8-------------|
 G|---8-10-12---12---8-10-12---12---8-10-12---12------12-10-8-----|
 D|-----------------------------------------------------------12--|

 


 


 [2]  

 
 D|-------------------------------------------------------------------|
 A|-------------------------------------------------------------------|
 F|-10----------10----10----------10----10----------10\-9-7-----------|
 C|----10-12-14----14----10-12-14----14----10-12-14---------10-8-7----|
 G|----------------------------------------------------------------10-|
 D|-------------------------------------------------------------------|
 D|--------------------------------|
 A|--------------------------------|
 F|--------------------------------|
 C|--------------------------------|
 G|-7----8--5--7----------11-11----|
 D|-5----6--3--5-----------9--9----|

 


 


 


 


 [1]  

 
 D|-------------------------------------------------------|
 A|-------------------------------------------------------|
 F|-7------------7------------7------------10---9---7-----|
 C|---8-7-8-10-8---8-7-8-10-8---8-7-8-10-8----7---7---7---|
 G|-------------------------------------------------------|
 D|-------------------------------------------------------|

 


 


 [2]  

 
 D|------------------------------------------------------17----15----13-----|
 A|-------------------------------------------------------------------------|
 F|-14----------------14----------------14----------------------------------|
 C|----15-14-15-17-15----15-14-15-17-15----15-14-15-17-15----15----15----15-|
 G|-------------------------------------------------------------------------|
 D|-------------------------------------------------------------------------|

 


 


 


 [1]  

 
 D|-------------------------------------------------|
 A|--///-----------///--///----///-------///--///---|
 F|--12-------------10---9-----10---------9----7----|
 C|-------------------------------------------------|
 G|-------------------------------------------------|
 D|-------------------------------------------------|

 


 


 [2]  

 
 D|-------------------------------------------------|
 A|-///-----------///--///----///-------///---///---|
 F|--17------------15--14-----15---------14---12----|
 C|-------------------------------------------------|
 G|-------------------------------------------------|
 D|-------------------------------------------------|

 


 


 


 [1]  

 
 D|---------------------------------------------------------------|
 A|---------------------------------------------------------------|
 F|---------------------------------------------------------------|
 C|-8---------8----8---------8----8---------8----10-8-------------|
 G|---8-10-12---12---8-10-12---12---8-10-12---12------12-10-8-----|
 D|-----------------------------------------------------------12--|

 


 


 [2]  

 
 D|-------------------------------------------------------------------|
 A|-------------------------------------------------------------------|
 F|-10----------10----10----------10----10----------10\-9-7-----------|
 C|----10-12-14----14----10-12-14----14----10-12-14---------10-8-7----|
 G|----------------------------------------------------------------10-|
 D|-------------------------------------------------------------------|
 D|-------------------------------------------------------|
 A|-------------------------------------------------------|
 F|-------------------------------------------------------|
 C|-----------------------------------------10--10--10----|
 G|-7-----8--5--7-----8--5--7----8----10-----8---8---8----|
 D|-5-----6--3--5-----6--3--5----6-----8------------------|

 


 


 


 


 5:35 RYTHM IS SAME FROM :40


 


 

 
 D|----------------------------------------|
 A|----------------------------------/-----|
 F|-9------9--10-9--8--9---12---13-+-/-----|
 C|---V-V----------------------------------|
 G|----------------------------------------|
 D|----------------------------------------|

 


 


 _____ __ ________


 

 
 D|-12-12-13-11------^-----/ \-----/ \---/ \-------------|
 A|-------------13-10-13-12-13-12-10-12-10-9-9-10-12-10-9------------|
 F|-------------------------------------------------------10-9-9~----|
 C|------------------------------------------------------------PH----|
 G|------------------------------------------------------------------|
 D|------------------------------------------------------------------|

 


 


 _______________


 

 
 D|--/ \ --^--7--^--7--^--7-^-----|
 A|-5-0-6-5-0-6-5-0-6-5/--9-6---9-6---9-6--9-6-9/-|
 F|-----------------------------------------------|
 C|-----------------------------------------------|
 G|-----------------------------------------------|
 D|-----------------------------------------------|

 


 


 


 /// /// /// /// /// /// )~~


 

 
 D|-12----13----16----17----19----17-----------16-17-18-19-|
 A|-12----12----16----16----16----16--16-17-19-------------|
 F|--------------------------------------------------------|
 C|--------------------------------------------------------|
 G|--------------------------------------------------------|
 D|--------------------------------------------------------|
 D|--------------------------___-----___---------|
 A|--------------^----------/ \---/ \--------|
 F|-/9---9~---9-9-10-9--9--7-9-7-5-5-7-5-4-4~~~--|
 C|----------------------------------------------|
 G|----------------------------------------------|
 D|----------------------------------------------|


Important: The song above is NOT stored on the Chordie server. The original song is hosted at www.azchords.com. Chordie works as a search engine and provides on-the-fly formatting. Chordie does not index songs against artists'/composers' will. To remove this song please click here.

This song is displayed as text-only. Transposing and tuning is only available for chordpro-songs.
Rate #1 of 1 versions

Login - add to songbook

SHARE PAGE  




You need to log in to post comments