Guitar Tabs, Chords and Lyrics
Server problems seems to be fixed. Chordie has been experiencing problems with songs disappearing. These issues now seems to be fixed, but still verifying the fix. If you find anything strange, please email admin@chordie.com.


Tragic Kingdom  Cradle of Filth

 

TRAGIC KINGDOM
As recorded by Cradle of Filth
(From the 2008 Album GODSPEED ON THE DEVIL'S THUNDER)
Gtr I (D G C F A D) - 'Guitar I'
Gtr II (D G C F A D) - 'Guitar II'
Gtr III (D G C F A D) - 'Keyboard'
Gtr IV (D G C F A D) - 'Choir'
Gtr V (D G C F A D) - 'Solo Guitar'
Note: I only did the keyboard bits that I know are right. Also rythm-wise I think
that some of the parts are wrong but the notes are right.
Intro & Verse
Q=150
[4/4] Gtrs I, II
S S S S S S S S S S S S S S S S S S S S S S S S S S S S S S S S
 
 ||------------------------------------|--------------------------------------|
 ||o-----------------------------------|--------------------------------------|
 ||------------------------------------|--------------------------------------|
 ||------------------------------------|--------------------------------------|
 ||o--0-0-0-0-0-0-0-0--0-0-0-0-0-0-0-0-|--0-0-0-0-0-0-0-0--0-0--0-0--0-0--0-0-|
 ||------------------------------------|--------------------------------------|

|
| Gtr III
| H H H E E E E
 
 ||------------------------------------|--------------------------------------|
 ||o-13---------------12---------------|-10---------------13---12---15---12---|
 ||------------------------------------|--------------------------------------|
 ||--10----------------9---------------|--7---------------10----9---13----9---|
 ||o-----------------------------------|--------------------------------------|
 ||------------------------------------|--------------------------------------|

1.
S S S S S S S S S S S S S S S S S S S S S S S S S S S S S S S S
 
 |-----------------------------------|----------------------------------------||
 |-----------------------------------|---------------------------------------o||
 |-----------------------------------|----------------------------------------||
 |-----------------------------------|----------------------------------------||
 |--0-0-0-0-0-0-0-0--0-0-0-0-0-0-0-0-|--5-5-5-5-5-5-5-5-5--5-5--5-5--5-5--5--o||
 |-----------------------------------|----------------------------------------||

|
| H H H E E E E
 
 |-----------------------------------|-10-----------------10------------------||
 |-13---------------12---------------|-------------------------13---12---13--o||
 |-----------------------------------|--7------------------7------------------||
 |-10----------------9---------------|-------------------------10----9---10---||
 |-----------------------------------|---------------------------------------o||
 |-----------------------------------|----------------------------------------||

2.
Gtrs I, II
 
 PM----| PM----| PM| PM|

S S S S Q S S S S Q S S Q S S E E Q
 
 |----------------------|------------------|
 |----------------------|------------------|
 |----------------------|------------------|
 |----------------------|------------4/5-3-|
 |---------3----------3-|-----3------2/3-1-|
 |-0-0-0-0-1--0-0-0-0-1-|-0-0-1--0-0-------|

Pre-Chorus
 
 PM--------| PM

E. S Q Q S S S S Q E E Q E E
 
 ||----------------------|---------------|
 ||o---------------------|---------------|
 ||----------------------|---------------|
 ||--9--10\9-------------|---------------|
 ||o-7---8\7--2----------|----4-4----5-5-|
 ||-----------0--0-0-0-0-|-0--2-2-0--3-3-|
 PM------------|

E. S Q H E E E E S S S S S S S S 4x
 
 |-----------------|---------------------------||
 |-----------------|--------------------------o||
 |-----------------|---------------------------||
 |-10--12\10-------|---3/5-3-------------------||
 |--8--10\=8--2----|-3-3/5-3------------------o||
 |------------0----|-1-------3-3-3-3-3-3-3-3---||

Pre-Chorus 2
Gtrs I, II
E Q E H E Q E E Q E
 
 ||-----------------|------------------|
 ||o----------------|------------------|
 ||-----------------|------------------|
 ||-----------------|------------------|
 ||o---7-7--7--7----|---7--5--5--------|
 ||------------0----|-----------6-6--6-|

|
| Gtr III
| <
| H H +H H
 
 ||-----------12----|-(12)-------------|
 ||o----------------|------------------|
 ||------------9----|--(9)-------------|
 ||-----------------|------------------|
 ||o----------------|------------------|
 ||-----------------|------------------|

E Q E E Q E E Q E S S S S S S S S
 
 |---------------|-------------------------||
 |---------------|------------------------o||
 |---------------|-------------------------||
 |---------------|-------------------------||
 |---------------|--------------5-------5-o||
 |-6-5--5-2-2--2-|-1-1--1-0-6-7---5-6-7----||

|
 
 |---------------|-------------------------||
 |---------------|------------------------o||
 |---------------|-------------------------||
 |---------------|-------------------------||
 |---------------|------------------------o||
 |---------------|-------------------------||

Gtr I
E Q E H E Q E E Q E
 
 ||---------------|--------------------|
 ||o--------------|--------------------|
 ||---------------|--------------------|
 ||---------------|--------------------|
 ||o-7-7--7--7----|---7--5---5---------|
 ||----------0----|------------6-6---6-|

|
| Gtr II
| H H E E E E E E E E
 
 ||---------------|--------------------|
 ||o--------------|--------------------|
 ||---------------|--------------------|
 ||----------5----|--------------------|
 ||o-7------------|---7--5-5-5-5-5-5-5-|
 ||---------------|--------------------|

|
| Gtr III
| <
| H H +H H
 
 ||---------12----|-(12)---------------|
 ||o--------------|--------------------|
 ||----------9----|--(9)---------------|
 ||---------------|--------------------|
 ||o--------------|--------------------|
 ||---------------|--------------------|

E Q E E Q E E Q E S S S S S S S S
 
 |---------------|--------------------------||
 |---------------|-------------------------o||
 |---------------|--------------------------||
 |---------------|--------------------------||
 |---------------|--------------5-------5--o||
 |-6-5--5-2-2--2-|-1-1--1-0-6-7---5-6-7-----||

|
| E Q E E Q E E Q E S S S S S S S S
 
 |---------------|--------------------------||
 |---------------|-------------------------o||
 |---------------|--------------------------||
 |---------------|--------------------------||
 |---------------|--------------5-------5--o||
 |-6-5--5-2-2--2-|-1-1--1-0-6-7---5-6-7-----||

|
 
 |---------------|--------------------------||
 |---------------|-------------------------o||
 |---------------|--------------------------||
 |---------------|--------------------------||
 |---------------|-------------------------o||
 |---------------|--------------------------||

Chorus
Gtr I
H. E E H Q S S S S
 
 ||-----------------|-----------------------|
 ||o-----------8-10-|-----------------------|
 ||---9-------------|-10----10--10h12p10\=9-|
 ||-----------------|-----------------------|
 ||o----------------|-----------------------|
 ||-----------------|-----------------------|

|
| Gtr II
| H. Q H Q S S S S
 
 ||-----------------|-13----15--13h15p13\12-|
 ||o----------------|-----------------------|
 ||---9-------12----|-----------------------|
 ||-----------------|-----------------------|
 ||o----------------|-----------------------|
 ||-----------------|-----------------------|

|
| Gtr III
| W W
 
 ||--12-------------|-13--------------------|
 ||o----------------|-----------------------|
 ||---9-------------|-10--------------------|
 ||-----------------|-----------------------|
 ||o----------------|-----------------------|
 ||-----------------|-----------------------|

H. E E Q Q S S E E E
 
 |--------------------|------------------------|
 |--------------------|------------------------|
 |--------------------|------------------------|
 |-10--------10---12--|-14--12--12h14p12-10-12-|
 |--------------------|------------------------|
 |--------------------|------------------------|

|
| H. E E W
 
 |--------------------|------------------------|
 |-13--------13---15--|-12---------------------|
 |--------------------|------------------------|
 |--------------------|------------------------|
 |--------------------|------------------------|
 |--------------------|------------------------|

|
| H. E E W
 
 |--------------------|------------------------|
 |-13-------(13)-(13)-|-12---------------------|
 |--------------------|------------------------|
 |-10--------10---12--|--9---------------------|
 |--------------------|------------------------|
 |--------------------|------------------------|

H. E E H Q S S S S
 
 |----------------|-----------------------|
 |-----------8-10-|-----------------------|
 |--9-------------|-10----10--10h12p10\=9-|
 |----------------|-----------------------|
 |----------------|-----------------------|
 |----------------|-----------------------|

|
| H. Q H Q S S S S
 
 |----------------|-13----15--13h15p13\12-|
 |----------------|-----------------------|
 |--9-------12----|-----------------------|
 |----------------|-----------------------|
 |----------------|-----------------------|
 |----------------|-----------------------|

|
| W W
 
 |-12-------------|-13--------------------|
 |----------------|-----------------------|
 |--9-------------|-10--------------------|
 |----------------|-----------------------|
 |----------------|-----------------------|
 |----------------|-----------------------|

H. E E Q Q E E E E
 
 |--------------------|---------------------||
 |--------------------|--------------------o||
 |--------------------|---------------------||
 |-10--------10---12--|-14--12--12-10-9-10--||
 |--------------------|--------------------o||
 |--------------------|---------------------||

|
| H. E E W
 
 |--------------------|---------------------||
 |-13--------13---15--|-12-----------------o||
 |--------------------|---------------------||
 |--------------------|---------------------||
 |--------------------|--------------------o||
 |--------------------|---------------------||

|
| H. E E W
 
 |--------------------|---------------------||
 |-13-------(13)-(13)-|-12-----------------o||
 |--------------------|---------------------||
 |-10--------10---12--|--9------------------||
 |--------------------|--------------------o||
 |--------------------|---------------------||

Bridge
Gtr I
[E] [E] [E] [E] [E] [E] [E] [E] [E] [E] [E] [E] [E] [E] [E] [E]  
 
 ||-------------------|---------------------|
 ||o------------------|---------------------|
 ||-------------------|---------------------|
 ||-------------------|---------------------|
 ||o------5-7-----8-7-|--------5-7-----10-8-|
 ||---0-5-----5-6-----|---0--5-----0-8------|

|
| Gtr II
| W +W
 
 ||-------------------|---------------------|
 ||o------------------|---------------------|
 ||-------------------|---------------------|
 ||---2---------------|--(2)----------------|
 ||o--2---------------|--(2)----------------|
 ||---0---------------|--(0)----------------|

|
| Gtr III
| W +W
 
 ||--12---------------|-(12)----------------|
 ||o------------------|---------------------|
 ||---9---------------|--(9)----------------|
 ||---9---------------|--(9)----------------|
 ||o--7---------------|--(7)----------------|
 ||-------------------|---------------------|

[E] [E] [E] [E] [E] [E] [E] [E] [E] [E] [E] [E] [E] [E] [E] [E]  
 
 |--------------------|-----------------------||
 |--------------------|----------------------o||
 |--------------------|-----------------------||
 |--------------------|-------------------7---||
 |--------5-7-----8-7-|------10-8-7-8-7-5----o||
 |---0--5-----5-6-----|---8-------------------||

|
| +W +W
 
 |--------------------|-----------------------||
 |--------------------|----------------------o||
 |--------------------|-----------------------||
 |--(2)---------------|--(2)------------------||
 |--(2)---------------|--(2)-----------------o||
 |--(0)---------------|--(0)------------------||

|
| +W +W
 
 |-(12)---------------|-(12)------------------||
 |--------------------|----------------------o||
 |--(9)---------------|--(9)------------------||
 |--(9)---------------|--(9)------------------||
 |--(7)---------------|--(7)-----------------o||
 |--------------------|-----------------------||

Gtrs I, II
[E] [E] [E] [E] [E] [E] [E] [E] [E] [E] [E] [E] [E] [E] [E] [E]  
 
 ||-------------------|----------------------|
 ||o------------------|----------------------|
 ||-------------------|----------------------|
 ||----0-7-9-----10-9-|-----0-7-9------12-10-|
 ||o-0-------0-8------|--0--------0-10-------|
 ||-------------------|----------------------|

|
| Gtr III
| W +W
 
 ||--5----------------|-(5)------------------|
 ||o------------------|----------------------|
 ||--2----------------|-(2)------------------|
 ||--2----------------|-(2)------------------|
 ||o-0----------------|-(0)------------------|
 ||-------------------|----------------------|

[E] [E] [E] [E] [E] [E] [E] [E] [E] [E] [E] [E] [E] [E] [E] [E]  
 
 |--------------------|------------------------||
 |--------------------|-----------------------o||
 |--------------------|--------------------9---||
 |-----0-7-9-----10-9-|-----12-10-9-10-9-7-----||
 |--0--------0-8------|--8--------------------o||
 |--------------------|------------------------||

|
| +W W
 
 |-(5)----------------|-(5)--------------------||
 |--------------------|-----------------------o||
 |-(2)----------------|-(2)--------------------||
 |-(2)----------------|-(2)--------------------||
 |-(0)----------------|--1--------------------o||
 |--------------------|------------------------||

Solo (Play Pre-Chorus 2 Behind it)
Gtr V
~~~~~
[B] [B] [E] [E] [E] [E] [B]  
 
 |-------------------|----------------------|
 |-15b17----15b17----|-15b17-15-13-12-------|
 |-------------------|----------------14----|
 |-------------------|----------------------|
 |-------------------|----------------------|
 |-------------------|----------------------|

~~
 
 |--3--| |--3--|

E E E E E Q E E E E E E E H
 
 |--------------------------|-------------------------|
 |----13-12----12-13b15--12-|-13-12----12-------------|
 |-14-------14--------------|-------14----14-12-------|
 |--------------------------|-------------------14----|
 |--------------------------|-------------------------|
 |--------------------------|-------------------------|

E E E E E E Q E E E E E E E E
 
 |-----------------------|-------------------------|
 |-----------------------|-------------------------|
 |-16-14-14-12-12-11-11--|-16-14-14-12-12-11-11-12-|
 |-----------------------|-------------------------|
 |-14-12-12-10-10--9--9--|-10--9--9--7--7--5--5--7-|
 |-----------------------|-------------------------|

[E] [E] [E] [E] [E] [E] [E] [E] 
E E +H.
 
 |-----------------|-------------------------------------|
 |-----------------|-------------------------------------|
 |-12-14-(14)------|-(14)-------------4-----4-5---4-5-7--|
 |-----------------|--------4-5-4-5-7---5-7-----7--------|
 |--7--9--(9)------|--(9)-7------------------------------|
 |-----------------|-------------------------------------|

E E +H. +S S S S S S S S S S S S S S S S
 
 |---------------------------------------------|
 |-20p0-19p0-17----------20p0-19p0-17----------|
 |--------------19-18-16--------------19-18-16-|
 |---------------------------------------------|
 |---------------------------------------------|
 |---------------------------------------------|

S S S S S S S S S S S S S S S S
 
 |---------------------------------------------|
 |-22p0-20p0-19----------20p0-19p0-17----------|
 |--------------19-18-16--------------19-18-16-|
 |---------------------------------------------|
 |---------------------------------------------|
 |---------------------------------------------|

S S S S S S S S S S S S S S S S
 
 |-------------------------------------------------|
 |-20-19-17-19-17----17----------------------------|
 |----------------19----19-17-19-17-16-17-16----16-|
 |-------------------------------------------19----|
 |-------------------------------------------------|
 |-------------------------------------------------|

S S S S S S S S S S S S S S S S
 
 |-----------------------------------------------|
 |-----------------------------------------------|
 |-----------------------------------------------|
 |-19-17-19-17-16-17-16----16--------------------|
 |----------------------19----19-17-19-16-17-16--|
 |-----------------------------------------------|

S S S S S S S S S S S S S S E
~ ~~
E Q E H Q. +S S H
 
 |---------------|---------------------------|
 |---------------|---------------------------|
 |-12-11--7-9----|-14b16---(14)pb16r12-11----|
 |---------------|---------------------------|
 |---------------|---------------------------|
 |---------------|---------------------------|

S S S S S S S S S S S S S S S S E E +H.
 
 |---------------------------------------------|------------------|
 |-10p8p7h8-12p10p8h10-13p12p10h12-15p13p12h13-|-12-15-(15)b17----|
 |---------------------------------------------|------------------|
 |---------------------------------------------|------------------|
 |---------------------------------------------|------------------|
 |---------------------------------------------|------------------|

Outro
Gtrs I, II
| W H H +W +H H
 
 ||-------------|-----------|--------------|-------------|
 ||o------------|-----------|--------------|-------------|
 ||-------------|-----------|--------------|-------------|
 ||--2----------|-4----5----|-(5)----------|-(5)---------|
 ||o-0----------|-2----3----|-(3)----------|-(3)----2----|
 ||-------------|-----------|--------------|--------0----|

|
| Gtr III
[B] [B] [B] [B] [B] [B] [B] [B]  
 
 ||-------10----|-7----8----|--------10----|--7-----5----|
 ||o------------|-----------|--------------|-------------|
 ||--------7----|-4----5----|---------7----|--4-----2----|
 ||-------------|-----------|--------------|-------------|
 ||o-0----------|-----------|--------------|-------------|
 ||-------------|-----------|--------------|-------------|

W +W +W +W
 
 |------------|--------------|--------------|---------------||
 |------------|--------------|--------------|--------------o||
 |------------|--------------|--------------|---------------||
 |------------|--------------|--------------|---------------||
 |-3----------|-(3)----------|-(3)----------|-(3)----------o||
 |-1----------|-(1)----------|-(1)----------|-(1)-----------||

|
| H H H H H H H H
 
 |------24----|-23-----22----|-21-----20----|-19-----18-----||
 |------------|--------------|--------------|--------------o||
 |------20----|-19-----18----|-17-----16----|-15-----14-----||
 |------------|--------------|--------------|---------------||
 |------------|--------------|--------------|--------------o||
 |------------|--------------|--------------|---------------||

Gtrs I, II
S S S S S S S S S S S S S S S S S S S S S S S S S S S S S S S S
 
 ||----------------------------------|----------------------------------|
 ||o---------------------------------|----------------------------------|
 ||----------------------------------|----------------------------------|
 ||----------------------------------|----------------------------------|
 ||o-3-3-3-3-3-3-3-3-3-3-3-3-3-3-3-3-|-3-3-3-3-3-3-3-3-3-3-3-3-3-3-3-3--|
 ||----------------------------------|----------------------------------|

|
| Gtr IV
| H H H H
 
 ||------------------5---------------|-7---------------8----------------|
 ||o---------------------------------|----------------------------------|
 ||------------------2---------------|-4---------------5----------------|
 ||----------------------------------|----------------------------------|
 ||o-----------------0---------------|-2---------------3----------------|
 ||----------------------------------|----------------------------------|

S S S S S S S S S S S S S S S S S S S S S S S S S S S S S S S S
 
 |----------------------------------|---------------------------------|
 |----------------------------------|---------------------------------|
 |----------------------------------|---------------------------------|
 |----------------------------------|---------------------------------|
 |-3-3-3-3-3-3-3-3--3-3-3-3-3-3-3-3-|-3-3-3-3-3-3-3-3-5-5-5-5-5-5-5-5-|
 |----------------------------------|---------------------------------|

|
| H H H H
 
 |-----------------10---------------|-7---------------5---------------|
 |----------------------------------|---------------------------------|
 |------------------7---------------|-4---------------5---------------|
 |----------------------------------|---------------------------------|
 |------------------5---------------|-2---------------3---------------|
 |----------------------------------|---------------------------------|

S S S S S S S S S S S S S S S S S S S S S S S S S S S S S S S S
 
 |---------------------------------|---------------------------------|
 |---------------------------------|---------------------------------|
 |---------------------------------|---------------------------------|
 |---------------------------------|---------------------------------|
 |-2-2-2-2-2-2-2-2-2-2-2-2-2-2-2-2-|-2-2-2-2-2-2-2-2-3-3-3-3-3-3-3-3-|
 |---------------------------------|---------------------------------|

|
| H H W
 
 |-----------------7---------------|-5-------------------------------|
 |---------------------------------|---------------------------------|
 |-----------------4---------------|-2-------------------------------|
 |---------------------------------|---------------------------------|
 |-----------------2---------------|-0-------------------------------|
 |---------------------------------|---------------------------------|

S S S S S S S S S S S S S S S S S S S S S S S S S S S S S S S S
 
 |-----------------------------------|-----------------------------------|
 |-----------------------------------|-----------------------------------|
 |-----------------------------------|-----------------------------------|
 |-----------------------------------|-----------------------------------|
 |--0--0-0-0-0-0-0-0-0-0-0-0-0-0-0-0-|--0--0-0-0-0-0-0-0-2-2-2-2-2-2-2-2-|
 |-----------------------------------|-----------------------------------|

|
| +W +H H
 
 |-(5)-------------------------------|-(5)---------------7---------------|
 |-----------------------------------|-----------------------------------|
 |-(2)-------------------------------|-(2)---------------4---------------|
 |-----------------------------------|-----------------------------------|
 |-(0)-------------------------------|-(0)---------------2---------------|
 |-----------------------------------|-----------------------------------|

S S S S S S S S S S S S S S S S S S S S S S S S S S S S S S S S 4x
 
 |---------------------------------|------------------------------------||
 |---------------------------------|-----------------------------------o||
 |---------------------------------|------------------------------------||
 |---------------------------------|------------------------------------||
 |---------------------------------|-----------------------------------o||
 |-1-1-1-1-1-1-1-1-1-1-1-1-1-1-1-1-|--1--1-1-1-1-1-1-1-0-0-0-0-0-0-0-0--||

|
| W +H H 4x
 
 |---------------------------------|------------------------------------||
 |-6-------------------------------|-(6)---------------5---------------o||
 |---------------------------------|------------------------------------||
 |-3-------------------------------|-(3)---------------2----------------||
 |---------------------------------|-----------------------------------o||
 |-1-------------------------------|-(1)---------------0----------------||

W
 
 |----------*|
 |----------*|
 |-2--------*|
 |-2--------*|
 |-0--------*|
 |----------*|

|
| W
 
 |-5--------*|
 |----------*|
 |-2--------*|
 |----------*|
 |-0--------*|
 |----------*|

Duration Legend
 
 ---------------
 W - whole; H - half; Q - quarter; E - 8th; S - 16th; T - 32nd; X - 64th; a - acciaccatura

+ - note tied to previous; . - note dotted; .. - note double dotted
Uncapitalized letters represent notes that are staccato (1/2 duration)
Irregular groupings are notated above the duration line
Duration letters will always appear directly above the note/fret number it represents the
duration for. Duration letters with no fret number below them represent rests. Multi-
bar rests are notated in the form Wxn, where n is the number of bars to rest for. Low
melody durations appear below the staff
Tablature Legend
 
 ----------------

h - hammer-on
p - pull-off
b - bend
pb - pre-bend
r - bend release (if no number after the r, then release immediately)
/\ - slide into or out of (from/to "nowhere")
s - legato slide
S - shift slide
<n> - natural harmonic
(n) - artificial harmonic
n(n) - tapped harmonic
~ - vibrato
tr - trill
T - tap
TP - trem. picking
PM - palm muting
\n/ - tremolo bar dip; n = amount to dip
\n - tremolo bar down
n/ - tremolo bar up
/n\ - tremolo bar inverted dip
= - hold bend; also acts as connecting device for hammers/pulls
<> - volume swell (louder/softer)
x - on rhythm slash represents muted slash
o - on rhythm slash represents single note slash
Misc Legend
 
 -----------

| - bar
|| - double bar
||o - repeat start
o|| - repeat end
*| - double bar (ending)
: - bar (freetime)
$ - Segno
& - Coda
Tempo markers - <E/E./Q/Q./H/H.> = BPM(8/16=s8/s16), where s8 = swing 8ths, s16 = swing 16ths
***************************************************************************************
***************************************************************************************

Important: The song above is NOT stored on the Chordie server. The original song is hosted at www.azchords.com. Chordie works as a search engine and provides on-the-fly formatting. Chordie does not index songs against artists'/composers' will. To remove this song please click here.

Text color:
Chord color:
Chord grids: 
Font size:    
Page size: 

B E
Rate #1 of 1 versions

Jango Player

Login - add to songbook

SHARE PAGE  



You need to log in to post comments