Guitar Tabs, Chords and Lyrics
Major upgrade!! After one year development the new version of Chordie is now online! Please give feedback.


What's on My Mind  The Cranberries

The Cranberries - What??s On My Mind
put a capo on 3rd fred
check the rhythm by listening to the original song
Intro: Bb5 Fm Bb5 Fm
[Bb5] [Fm]  
 
 e|-3-3-3-3--3-3-3-|-1-1-0-1--1-1-1-||
 B|-3-3-3-3--3-3-3-|-3-3-3-3--3-3-3-||
 G|-0-0-0-0--0-0-0-|-2-2-2-2--2-2-2-||
 D|-0-0-0-0--0-0-0-|-0-0-0-0--0-0-0-||
 A|----------------|----------------||
 E|----------------|----------------||

[Eb] [Cm]  
 
 e|-0-0-0-0--0-0-0-|-0-0-0-0--0-0-0-||
 B|-1-1-1-1--1-1-1-|-1-1-1-1--1-1-1-||
 G|-0-0-0-0--0-0-0-|-2-2-2-2--2-2-2-||
 D|-2-2-2-2--2-2-2-|-2-2-2-2--2-2-2-||
 A|-3-3-3-3--3-3-3-|-0-0-0-0--0-0-0-||
 E|-0-0-0-0--0-0-0-|-0-0-0-0--0-0-0-||

2nd guitar: (with capo on 3rd fred) (without capo)
 
 e|---3---------| e|---6---------|
 B|-5---5-3---0-| B|-8---8-6--3--|
 G|-------------| G|-------------|

[Bb5]Baby, I would [Fm]do anything for [Bb5]you, for [Fm]you
Nobody??[Bb5]s ever treate[Fm]d me quite like yo[Bb5]u do-[Fm]o-o
[Bb5] [Fm]Wasted too much [Bb5]time [Fm]Wasted too much [Bb5]time
I??ve wasted too much time I??ve wasted too much time And I??m gonna tell you
what??[Fm]s on my Mind, Yeah[Bb5], [2nd guitar] Yeah[Fm] [2nd guitar] [violin]
[Eb] I was [Cm]wrong all al[Eb]ong, there could [Cm]be somebody like [Eb]thee
Here we [Cm]are final[Eb]ly, I??ve foun[Cm]d me, I??ve fo[Eb]und me
[Bb5] [Fm] [Bb5]Maybe it??l[Fm]l be quite so[Bb5]meti-i-[Fm]i-me
I love (you) [Bb5]forever and we will [Fm]be waiting in [Bb5]ti-i-i-[Fm]me
[Bb5] [Fm]Wasting no more [Bb5]time [Fm]Wasting no more [Bb5]time
I??m wasting no more time I??m wasting no more time I??m always gonna tell you
what??[Fm]s on my Mind, Yeah[Bb5], [2nd guitar] Yeah[Fm] [2nd guitar] [violin]
[Eb] I was [Cm]wrong all al[Eb]ong, there could [Cm]be somebody like [Eb]thee
Here we [Cm]are final[Eb]ly, I??ve foun[Cm]d me, I??ve fo[Eb]und me
[Eb] I was [Cm]wrong all al[Eb]ong, there could [Cm]be somebody like [Eb]thee
Here we [Cm]are final[Eb]ly, I??ve foun[Cm]d me, I??ve fo[Eb]und me, I??ve found me
...

Important: The song above is NOT stored on the Chordie server. The original song is hosted at www.azchords.com. Chordie works as a search engine and provides on-the-fly formatting. Chordie does not index songs against artists'/composers' will. To remove this song please click here.

Text color:
Chord color:
Chord grids: 
Font size:    
Page size: 

Bb5 Cm Eb Fm
Rate #1 of 1 versions

Login - add to songbook

SHARE PAGE  




You need to log in to post comments