Guitar Tabs, Chords and Lyrics
Major upgrade!! After one year development the new version of Chordie is now online! Please give feedback.


Hurt You So Bad   Crazy Town

 
 D#|---------------------------------------------------------------------|
 A#|---------------------------------------------------------------------|
 F#|---------------------------------------------------------------------|
 C#|-4-4-4-4-4-4-4-4/3-3-3-3-3/7-7-7-7-7/0-0-0-0-0-0-0-0-0h3-3-3-3-3-3-3-|
 G#|---------------------------------------------------------------------|
 C#|---------------------------------------------------------------------|

 


 


 [Main Riff] 


 


 (rhythm guitar)


 

 
 D#|----------------------------------------------------|
 A#|----------------------------------------------------|
 F#|------------3-------5-------------------------------|
 C#|-0----------3--x-4--5--x-4--5-------8-------3-------|
 G#|-0--x-8-----1-------3-------5--x-8--8--x-4--3--x-4--|
 C#|-0--------------------------5-------8-------3-------|

 


 


 [Verse 1] 


 


 (solo guitar)


 

 
 D#|-14-----------------|
 A#|-14-----------------|
 F#|-14-----------------|
 C#|--------------------|
 G#|--------------------|
 C#|--------------------|(x8)

 


 


 after verse 1 4 times, slowly the intro riff comes.(and they use a system that repeats what you played once


 so what they do is: playing "verse 1" 4 times and then they play the intro riff 4 times. so after you play


 verse 1 4 times start playing the intro riff and play it 4 times!


 


 [Intro Riff] 


 


 (solo guitar)


 

 
 D#|---------------------------------------------------------------------|
 A#|---------------------------------------------------------------------|
 F#|---------------------------------------------------------------------|
 C#|-4-4-4-4-4-4-4-4/3-3-3-3-3/7-7-7-7-7/0-0-0-0-0-0-0-0-0h3-3-3-3-3-3-3-|
 G#|---------------------------------------------------------------------|
 C#|---------------------------------------------------------------------|(x4)

 


 


 [Main Riff] 


 


 (rhythm guitar)


 

 
 D#|----------------------------------------------------|
 A#|----------------------------------------------------|
 F#|------------3-------5-------------------------------|
 C#|-0----------3--x-4--5--x-4--5-------8-------3-------|
 G#|-0--x-8-----1-------3-------5--x-8--8--x-4--3--x-4--|
 C#|-0--------------------------5-------8-------3-------|(x4)

 


 pm ...................................................


 


 [Intro Riff] 


 


 (solo guitar)


 

 
 D#|---------------------------------------------------------------------|
 A#|---------------------------------------------------------------------|
 F#|---------------------------------------------------------------------|
 C#|-4-4-4-4-4-4-4-4/3-3-3-3-3/7-7-7-7-7/0-0-0-0-0-0-0-0-0h3-3-3-3-3-3-3-|
 G#|---------------------------------------------------------------------|
 C#|---------------------------------------------------------------------|(x3)

 


 


 [Main Riff] 


 


 (rhythm guitar)


 

 
 D#|----------------------------------------------------|
 A#|----------------------------------------------------|
 F#|------------3-------5-------------------------------|
 C#|-0----------3--x-4--5--x-4--5-------8-------3-------|
 G#|-0--x-8-----1-------3-------5--x-8--8--x-4--3--x-4--|
 C#|-0--------------------------5-------8-------3-------|(x3)

 


 


 [Verse 1] 


 


 (solo guitar)


 

 
 D#|-14-----------------|
 A#|-14-----------------|
 F#|-14-----------------|
 C#|--------------------|
 G#|--------------------|
 C#|--------------------|(x8)

 


 


 [Intro Riff] 


 


 (solo guitar)


 

 
 D#|---------------------------------------------------------------------|
 A#|---------------------------------------------------------------------|
 F#|---------------------------------------------------------------------|
 C#|-4-4-4-4-4-4-4-4/3-3-3-3-3/7-7-7-7-7/0-0-0-0-0-0-0-0-0h3-3-3-3-3-3-3-|
 G#|---------------------------------------------------------------------|
 C#|---------------------------------------------------------------------|(x4)

 


 


 [Main Riff] 


 


 (rhythm guitar)


 

 
 D#|----------------------------------------------------|
 A#|----------------------------------------------------|
 F#|------------3-------5-------------------------------|
 C#|-0----------3--x-4--5--x-4--5-------8-------3-------|
 G#|-0--x-8-----1-------3-------5--x-8--8--x-4--3--x-4--|
 C#|-0--------------------------5-------8-------3-------|(x4)

 


 pm ...................................................


 


 [Intro Riff] 


 


 (solo guitar)


 

 
 D#|---------------------------------------------------------------------|
 A#|---------------------------------------------------------------------|
 F#|---------------------------------------------------------------------|
 C#|-4-4-4-4-4-4-4-4/3-3-3-3-3/7-7-7-7-7/0-0-0-0-0-0-0-0-0h3-3-3-3-3-3-3-|
 G#|---------------------------------------------------------------------|
 C#|---------------------------------------------------------------------|(x3)

 


 


 [Main Riff] 


 


 (rhythm guitar)


 

 
 D#|----------------------------------------------------|
 A#|----------------------------------------------------|
 F#|------------3-------5-------------------------------|
 C#|-0----------3--x-4--5--x-4--5-------8-------3-------|
 G#|-0--x-8-----1-------3-------5--x-8--8--x-4--3--x-4--|
 C#|-0--------------------------5-------8-------3-------|(x3)

 


 


 [Solo] 


 


 (solo guitar)


 

 
 D#|-22----20--22-20-22-19--20-19-20---------------------------------------------------------|
 A#|---------------------------------20--22-20-22---15--17h18-20--17h18-20-17-17h18----------|
 F#|--------------------------------------------------------------------------------14-------|
 C#|-----------------------------------------------------------------------------------------|
 G#|-----------------------------------------------------------------------------------------|
 C#|-----------------------------------------------------------------------------------------|
 D#|--17------18-17-15-13--15-17-----18--17-15--20--18-17--15--15-17-------------------------|
 A#|-----15----------------------15-------------20-------------------------------------------|
 F#|-----------------------------------------------------------------------------------------|
 C#|-----------------------------------------------------------------------------------------|
 G#|-----------------------------------------------------------------------------------------|
 C#|-----------------------------------------------------------------------------------------|

 


 


 [Intro Riff] 


 


 (solo guitar)


 

 
 D#|---------------------------------------------------------------------|
 A#|---------------------------------------------------------------------|
 F#|---------------------------------------------------------------------|
 C#|-4-4-4-4-4-4-4-4/3-3-3-3-3/7-7-7-7-7/0-0-0-0-0-0-0-0-0h3-3-3-3-3-3-3-|
 G#|---------------------------------------------------------------------|
 C#|---------------------------------------------------------------------|(x8)

 


 


 [Main Riff] 


 


 (rhythm guitar)


 

 
 D#|----------------------------------------------------|
 A#|----------------------------------------------------|
 F#|------------3-------5-------------------------------|
 C#|-0----------3--x-4--5--x-4--5-------8-------3-------|
 G#|-0--x-8-----1-------3-------5--x-8--8--x-4--3--x-4--|
 C#|-0--------------------------5-------8-------3-------|(x8)

 


 


 in the end the solo guitar plays:


 


 

 
 D#|--14------14-------------------|
 A#|-----14---14---14--------------|
 F#|-------------------------------|
 C#|-------------------------------|
 G#|-------------------------------|
 C#|-------------------------------| 


Important: The song above is NOT stored on the Chordie server. The original song is hosted at www.azchords.com. Chordie works as a search engine and provides on-the-fly formatting. Chordie does not index songs against artists'/composers' will. To remove this song please click here.

This song is displayed as text-only. Transposing and tuning is only available for chordpro-songs.
Rate #1 of 3 versions

Login - add to songbook

SHARE PAGE  



You need to log in to post comments