Guitar Tabs, Chords and Lyrics
Update 25:10. 13:00. Site is back up running again. Songbooks are recovered. Woring on getting search back up..


Sleepy Time Time  Cream

 
 -------------------------------------------------------------------------------

SLEEPY TIME TIME ‚?? Cream
(Bruce/Godfrey)
 
 -------------------------------------------------------------------------------

‚??Sleepy Time Time‚?? was written by Jack Bruce and his then wife Janet Godfrey
and appears on Cream‚??s debut album ‚??Fresh Cream‚?? (1966). The structure of the
song is unusual in that it is a 16-bar blues (bars 5 - 8 are repeated) as
opposed to the standard 12-bar format, although, perversely, the solo section
retains the normal 12-bar structure. The song therefore comprises 60 bars:
three 16-bar verse/chorus sections and a 12-bar solo between verses two and
three.
Tuning: standard
Rhythm guitar
Verse 1
[C7]  
 
 e|--------------------------|-------------------------------|
 B|--------------------------|-------------------------------|
 G|-----------------3--------|----------------------3--------|
 D|------------3/5-----5--3--|--1h2--(2)--(2)‚??-3/5-----5--3--|
 A|--------------------------|-------------------------------|
 E|--------------------------|-------------------------------|
 e|---------------------------------|-------------------------------|
 B|---------------------------------|-------------------------------|
 G|------------------------3--------|----------------------3-----3--|
 D|----1h2--(2)--(2)‚??-3/5-----5--3--|--1h2--(2)--(2)‚??-3/5-----5-----|
 A|---------------------------------|-------------------------------|
 E|---------------------------------|-------------------------------|

co ~~~ bss ~~~ ~~~ bss ~~~
[F7]  
 
 e|--------------------------------|--------------------------|-----------------------|
 B|--------------------------------|--------------------------|-----------------------|
 G|----5-----------3h5‚??-3--(3)--5--|--------------------------|-----------------------|
 D|----5---------------------------|--3----1------------------|--1h3----1-------------|
 A|----3---------------------------|------------3----1--2--3--|--------------3--1--3--|
 E|--------------------------------|--------------------------|-----------------------|

~~~ bss ~~~ bss
[C7]  
 
 e|-------------------------------|----------------------------------|
 B|-------------------------------|----------------------------------|
 G|----3h5----3-------------------|--3h5----5----3-------------------|
 D|----------------5/3----1-------|-------------------5\3----1-------|
 A|----------------------------3--|-------------------------------3--|
 E|-------------------------------|----------------------------------|

~~~ bss ~~~ ~~~~ bss
[F7]  
 
 e|-----------------------------|----------------------------|
 B|-----------------------------|----------------------------|
 G|-----------------------------|----------------------------|
 D|----1h3----1-----------------|--1h3----1---------------1--|
 A|----------------3----1----3--|--------------3----1--3-----|
 E|-----------------------------|----------------------------|

~~~ bss ~~~
[C7]  
 
 e|-----------------------------|--------------------------------------|
 B|-----------------------------|--------------------------------------|
 G|---------3h5-----------------|--3--4--5-----------------------------|
 D|----3/5-------5\3----1-------|-----------5\3--1------------1--3--1--|
 A|--------------------------3--|-------------------3--3---3-----------|
 E|-----------------------------|--------------------------------------|

~~~ ~~~ ~~~ co
[G7] [F7]  
 
 e|---------------------------------|------------------------------|
 B|---------------------------------|------------------------------|
 G|--------------4h5--4-------------|------------------------------|
 D|----3/5----5----------5\3--1-----|--1h3-------------------1--3--|
 A|------------------------------3--|---------------------3--------|
 E|---------------------------------|------------------------------|

~~~ co co co ~~~~
[C] [F7] [C7] [G7]  
 
 e|------------------------------------------|----------------------------------------|
 B|------------------------------------------|----------------------------------------|
 G|------------------------------------------|------------3-------------------3-------|
 D|---------3/5-----5‚??-3/5-----5--5----------|--------/5-----5------5----3/5-----5\3--|
 A|----1h3-------5----------5--------5\3--1--|--3\------------------------------------|
 E|------------------------------------------|----------------------------------------|

Verse 2
[C7]  
 
 e|-----------------------------------|---------------------------------|
 B|-----------------------------------|---------------------------------|
 G|--------------------------3--------|------------------------3--------|
 D|----1h2--(2)----(2)-‚??3/5-----5--3--|--1h2--(2)----(2)-‚??3/5-----5--3--|
 A|-----------------------------------|---------------------------------|
 E|-----------------------------------|---------------------------------|
 e|-----------------------------------|---------------------------------|
 B|-----------------------------------|---------------------------------|
 G|--------------------------3-----3--|----5------------3h5--3--(3)--5--|
 D|----1h2--(2)----(2)-‚??3/5-----5-----|----5----------------------------|
 A|-----------------------------------|----3----------------------------|
 E|-----------------------------------|---------------------------------|

~~~ bss ~~~ ~~~ bss ~~~
[F7]  
 
 e|-----------------------------|----------------------------|
 B|-----------------------------|----------------------------|
 G|-----------------------------|----------------------------|
 D|----/3----1------------------|--1h3----1------------------|
 A|---------------3----1--2--3--|--------------3----1--2--3--|
 E|-----------------------------|----------------------------|

~~~ bss ~~~ ~~~ bss
[C7]  
 
 e|-------------------------------|-----------------------------|
 B|-------------------------------|-----------------------------|
 G|----3h5----3-------------------|--3h5----3-------------------|
 D|----------------5/3----1-------|--------------5\3----1-------|
 A|----------------------------3--|--------------------------3--|
 E|-------------------------------|-----------------------------|

~~~ bss ~~~ ~~~ bss ~~~
[F7]  
 
 e|--------------------------------|---------------------------|
 B|--------------------------------|---------------------------|
 G|--------------------------------|---------------------------|
 D|----1h3----1--------------------|--1h3----1-----------------|
 A|----------------3----1h3--1--3--|--------------3----1----3--|
 E|--------------------------------|---------------------------|

~~~ ~~~ bss ~~~ bss
[C7]  
 
 e|-----------------------------|--------------------------------|
 B|-----------------------------|--------------------------------|
 G|----3/5----3-----------------|--3h5--5--3--3------------------|
 D|--------------5\3----1-------|----------------5\3--3--1-------|
 A|--------------------------3--|-----------------------------3--|
 E|-----------------------------|--------------------------------|

co co co co co
[G7] [F7]  
 
 e|---------------------------------------------|-----------------------------|
 B|---------------------------------------------|-----------------------------|
 G|---------3--5----3--5-------3--5-------------|-----------------------------|
 D|----3/5----------------3/5--------5\3--1-----|--1h3---------------1--3--1--|
 A|------------------------------------------3--|-----------------3-----------|
 E|---------------------------------------------|-----------------------------|

~~~ co ~~~ bss ~~~
[C7] [F7] [C7] [G7]  
 
 e|--------------------------------------|------------------------------------|
 B|--------------------------------------|------------------------------------|
 G|---------3--4--5----------------------|----------3-----------------3-------|
 D|------------------3--4--5‚??-5\3--1-----|-----3/5-----5--3--5----/5-----5\3--|
 A|----3------------------------------3--|--3---------------------------------|
 E|--------------------------------------|------------------------------------|

Solo
~~~ ~~~
[C7]  
 
 e|----------------------------------|--------------------------------|
 B|----------------------------------|--------------------------------|
 G|--------------------------3-------|------------------------3-------|
 D|----1h2--(2)----(2)-‚??3/5-----5\3--|--1h2--(2)----(2)-‚??3/5-----5\3--|
 A|----------------------------------|--------------------------------|
 E|----------------------------------|--------------------------------|

~~~ ~~~ bss ~~~
 
 e|-----------------------------------|------------------------------------|
 B|-----------------------------------|------------------------------------|
 G|--------------------------3-----3--|--5\--------------------------------|
 D|----1h2--(2)----(2)-‚??3/5-----5-----|----------------1/3----1--(1)-------|
 A|-----------------------------------|---------------------------------3--|
 E|-----------------------------------|------------------------------------|

~~~ bss ~~~ ~~~ bss ~~~
[F7]  
 
 e|-------------------------|---------------------------|
 B|-------------------------|---------------------------|
 G|-------------------------|---------------------------|
 D|--3----1-----------------|--1h3----1-----------------|
 A|------------3----1----3--|--------------3----1----3--|
 E|-------------------------|---------------------------|

~~~ ~~~ bss ~~~ ~~~ bss
[C7]  
 
 e|-----------------------------------|------------------------------------------|
 B|-----------------------------------|------------------------------------------|
 G|----3h5--5--3---3------------------|--3h5--5--3---3---------------------------|
 D|-------------------5\3--3--1-------|-----------------5\3--3--1----------------|
 A|--------------------------------3--|------------------------------3-----------|
 E|-----------------------------------|------------------------------------------|

co
[G7] [F7]  
 
 e|------------------------------------------------|------------------------------|
 B|------------------------------------------------|------------------------------|
 G|---------3--3-------3--3-------3--3-------------|--3h5-------------------------|
 D|----3/5--------3/5--------3/5--------5\3--1-----|------------------------1--3--|
 A|---------------------------------------------3--|---------------------3--------|
 E|------------------------------------------------|------------------------------|

~~~ ~~~ ~~~
[C7] [F7] [C7] [G7]  
 
 e|----------------------------------------|--------------------------------------|
 B|----------------------------------------|--------------------------------------|
 G|---------3/5-----5--5-----5-------------|------------3-----------------3-------|
 D|----1h2-------5--------5-----5\3--2-----|-------3/5-----5--3--5---3/5-----5\3--|
 A|-------------------------------------3--|--3-----------------------------------|
 E|----------------------------------------|--------------------------------------|

Verse 3
~~~ ~~~
[C7]  
 
 e|----------------------------------|--------------------------------|
 B|----------------------------------|--------------------------------|
 G|--------------------------3-------|------------------------3-------|
 D|----1h2--(2)----(2)-‚??3/5-----5\3--|--1h2--(2)----(2)-‚??3/5-----5\3--|
 A|----------------------------------|--------------------------------|
 E|----------------------------------|--------------------------------|

~~~
 
 e|-----------------------------------|--------------------------------|
 B|-----------------------------------|--------------------------------|
 G|--------------------------3-----3--|--5\----------------------------|
 D|----1h2--(2)----(2)-‚??3/5-----5-----|--5\---------------1--(1)‚??-3/5--|
 A|-----------------------------------|--3\--------1/3-----------------|
 E|-----------------------------------|--------------------------------|

~~~ bss ~~~ ~~~ bss ~~~
[F7]  
 
 e|----------------------------|---------------------------|
 B|----------------------------|---------------------------|
 G|----------------------------|---------------------------|
 D|----1/3----1-------------1--|--1h3----1-----------------|
 A|---------------3----1h3-----|--------------3----1----3--|
 E|----------------------------|---------------------------|

~~~ ~~~ bss
[C7]  
 
 e|-------------------------------------|------------------------------------------|
 B|-------------------------------------|------------------------------------------|
 G|----3h5--5--3---3--------------------|--3h5--5--3---3---------------------------|
 D|-------------------5\3--3‚??-2h3p2-----|-----------------5\3--3--1----------------|
 A|----------------------------------3--|------------------------------3-----------|
 E|-------------------------------------|------------------------------------------|

~~~ bss ~~~ bss ~~~ bss ~~~ co co
[F7]  
 
 e|------------------------------|-------------------------------|
 B|------------------------------|-------------------------------|
 G|------------------------------|-------------------------------|
 D|----1h3----1------------1-----|--1h3----1---------------1--3--|
 A|----------------3--1/3-----3--|--------------3--3‚??-1h3--------|
 E|------------------------------|-------------------------------|

~~~ ~~~ bss bss
[C7]  
 
 e|-----------------------------|------------------------------------------|
 B|-----------------------------|------------------------------------------|
 G|---------3h5-----------------|--3h5--5--5--3--3--3----------------------|
 D|----3/5-------5\3----1-------|----------------------5\3--3--3--1-----1--|
 A|--------------------------3--|------------------------------------3-----|
 E|-----------------------------|------------------------------------------|

~~~ ~~~ co
[G7] [F7]  
 
 e|-------------------------------------------|------------------------------|
 B|-------------------------------------------|------------------------------|
 G|--------------5-----5--4-----------3h5--3--|--5\3-------------------------|
 D|----3/5----5-----5--------5---3/5----------|------------------------1--3--|
 A|-------------------------------------------|---------------------3--------|
 E|-------------------------------------------|------------------------------|

[C7] [F7] [C7]  
 
 e|-------------------------------------------|--------------------------------|
 B|-------------------------------------------|--------------------------------|
 G|-------3/5--5--5‚??-3h5--3-------------------|--------------------------------|
 D|----2---------------------5‚??-5\3--1--------|------------1h2--(2)------------|
 A|-------------------------------------3--1--|--3\----------------------------|
 E|-------------------------------------------|--------------------------------|

Lead guitar
Verse 1
co co co co
[C7]  
 
 e|--------------------------|----------------------------------|
 B|--------------------------|----------------10b11--10--8------|
 G|--------------------------|------------------------------10--|
 D|--------------------------|----------------------------------|
 A|--------------------------|----------------------------------|
 E|--------------------------|----------------------------------|

~~~~~~~~~~~ ~~~~~~~~~~~
 
 e|-------------------------------------|-----------------------------------|
 B|---------------------10b11r10p8------|-------------------10b11r10p8------|
 G|----8h9--(9)----(9)--------------10--|--8h9--(9)----(9)--------------10--|
 D|-------------------------------------|-----------------------------------|
 A|-------------------------------------|-----------------------------------|
 E|-------------------------------------|-----------------------------------|

bss ~~~ bss
[F7]  
 
 e|---------------------------------|---------------------------|
 B|---------------------------------|---------------------------|
 G|----8h9--------8h10‚??-8--(8)------|--8h10--8------------------|
 D|-----------------------------10--|-----------10--------------|
 A|---------------------------------|---------------------------|
 E|---------------------------------|---------------------------|

rpb ~~~ bss co ~~~ bss
[C7]  
 
 e|---------------------------------|---------------------------|
 B|----15b16--(16)--15--15--13------|--11h13----11--------------|
 G------------------------------14--|---------------12\10----8--|
 D|---------------------------------|---------------------------|
 A|---------------------------------|---------------------------|
 E|---------------------------------|---------------------------|

~~~ co ~~~ co ~~~ mu ~~~ bss
[F7]  
 
 e|-----------15---------15-----------------------------|-------------------|
 B|----15b17------15b17------13h15--13------------------|-------------------|
 G|-------------------------------------12\10‚??-8--(10)--|--8h10----8--------|
 D|-----------------------------------------------------|---------------10--|
 A|-----------------------------------------------------|-------------------|
 E|-----------------------------------------------------|-------------------|

rpb ~~~ ~~~ co ~~~ bss
[C7]  
 
 e|------------------------------------------------------|------------------------|
 B|----15b16--(16)--15---15-‚??13h15‚??-13--(13)-------------|------------------------|
 G|-------------------------------------------/12‚??-8h10--|--8----10----8----------|
 D|------------------------------------------------------|------------------------|
 A|------------------------------------------------------|------------------------|
 E|------------------------------------------------------|------------------------|

~~~ co ~~~
 
 e|-----------15---------------15-------------------------------------------|
 B|----15b17------15b16-15b17------15b16r15p13-----------13-15-15b16r15-13--|
 G|---------------------------------------------------14--------------------|
 D|-------------------------------------------------------------------------|
 A|-------------------------------------------------------------------------|
 E|-------------------------------------------------------------------------|

~~~~~~ ~~~co
[G7] [F7]  
 
 e|-----------------------------|----------------------|
 B|----15b17----(17)------------|--8h11----------------|
 G|-----------------------------|----------------------|
 D|-----------------------------|----------------------|
 A|-----------------------------|----------------------|
 E|-----------------------------|----------------------|

~~~ co bss
[C7] [F7]  
 
 e|-------------------------------------------------------------|
 B|---------------------------------------------------8---------|
 G|----8h9p8h9p8h9p8h9p8h9p8h9p8h9p8h9p8----8/10---------8------|
 D|---------------------------------------------------------10--|
 A|-------------------------------------------------------------|
 E|-------------------------------------------------------------|

Verse 2
~~~~ co bss ~~~~~~
[C7] [G7] [C7]  
 
 e|---------------8-------------------------|------------------------------|
 B|---------8h10------8-----------11p8------|--------------10b11r10p8------|
 G|----8-----------------8--------------10--|--8h9----(9)--------------10--|
 D|-----------------------------------------|------------------------------|
 A|-----------------------------------------|------------------------------|
 E|-----------------------------------------|------------------------------|

~~~~~~ ~~~~~~
 
 e|-----------------------------------|-----------------------------------|
 B|-------------------10b11r10p8------|-------------------10b11r10p8------|
 G|----8h9----(9)-----------------10--|--8h9--(9)----(9)--------------10--|
 D|-----------------------------------|-----------------------------------|
 A|-----------------------------------|-----------------------------------|
 E|-----------------------------------|-----------------------------------|

co bss ~~~ bss
[F7]  
 
 e|-----------------------------------------|---------------------------|
 B|-----------------11h13‚??-11--(11)---------|---------------------------|
 G|----8h9---------------------------12\10--|--8h10----8----------------|
 D|-----------------------------------------|---------------10----------|
 A|-----------------------------------------|---------------------------|
 E|-----------------------------------------|---------------------------|

co co co co ~~~~~ ~~~ mu
[C7]  
 
 e|---------------------------------------------------|------------------------------|
 B|--------13b16‚??13b16-13b16-13b16--13-11-13-11‚??(11)--|------------------------------|
 G|---------------------------------------------------|----------8h10--8------(9)----|
 D|---------------------------------------------------|------------------------------|
 A|---------------------------------------------------|------------------------------|
 E|---------------------------------------------------|------------------------------|

|-- hold bend --|
rpb ~~~ co rpb ~~~~ ~~~ bss ~~~~~
[F7]  
 
 e|----------------------------15------------------------|----------------------------|
 B|----15b17----(17)-15b17---------(17)r15‚??-13h15--13----|----------------------------|
 G|------------------------------------------------------|--8h10----8-----------------|
 D|------------------------------------------------------|---------------10---(10)----|
 A|------------------------------------------------------|----------------------------|
 E|------------------------------------------------------|----------------------------|

~~~~~~~~ co co co pb co co co co ~~~~~
[C7]  
 
 e|-----------------------------11--13‚??-(13)15--13--11--13--11--|--(11)---------------|
 B|----11h13--------(13)----13----------------------------------|---------------------|
 G|-------------------------------------------------------------|---------------------|
 D|-------------------------------------------------------------|---------------------|
 A|-------------------------------------------------------------|---------------------|
 E|-------------------------------------------------------------|---------------------|

pb pb pb pb co ~~~ co co bss
 
 e|----18b20-(18)19-(18)20-18b20-(18)19-(18)20-18b20-18---15----------|
 B|-----------------------------------------------------------18--16--|
 G|-------------------------------------------------------------------|
 D|-------------------------------------------------------------------|
 A|-------------------------------------------------------------------|
 E|-------------------------------------------------------------------|

~~~~ bss co
[G7] [F7]  
 
 e|----------------------------------------------|----------------------------|
 B|----------------------------------------------|----------------------------|
 G|-----------------15------15-------------------|----------------------------|
 D|----17----(17)-------17--------17\15--13------|--13h15---------------------|
 A|------------------------------------------15--|----------------------------|
 E|----------------------------------------------|----------------------------|

co ~~~~~~~~
[C7] [F7]  
 
 e|----------------8-------------------------8---------------|
 B|-------------------11p8‚??-11b13------(13)-----11p8------8--|
 G|---------------------------------------------------10-----|
 D|----------------------------------------------------------|
 A|----------------------------------------------------------|
 E|----------------------------------------------------------|

Solo
bss co ~~~~ co co bss bss
[C7] [G7] [C7]  
 
 e|---------------------------------------|-------------------------------------------|
 B|------------------------8--8----(8)----|-----------8-------------------------------|
 G|----8h10p8-(8)------/9-----------------|----10b12-----8h10--8----------------8-----|
 D|---------------------------------------|-----------------------10------8h10--------|
 A|---------------------------------------|---------------------------10--------------|
 E|---------------------------------------|-------------------------------------------|

rpb rpb co bss ~~~~ mu co co
 
 e|---------------------------------------------------------|
 B|----18b20-(20)-(20)-18b20r18-16----------------------16--|
 G|--------------------------------17-16-17--(17)-x-17------|
 D|---------------------------------------------------------|
 A|---------------------------------------------------------|
 E|---------------------------------------------------------|

co co ~~~~
 
 e|---------------18---------------------------------18p15-18p15--|
 B|----18b20----------18b20----18--16--18--16--(16)---------------|
 G|---------------------------------------------------------------|
 D|---------------------------------------------------------------|
 A|---------------------------------------------------------------|
 E|---------------------------------------------------------------|

-hold bend-
co rpb
 
 e|----18b20-18b20-18b20-18b20-18b20-18b20-18b20-18b20-18b20-------18----------|
 B|----------------------------------------------------------18b20----(20)r18--|
 G|----------------------------------------------------------------------------|
 D|----------------------------------------------------------------------------|
 A|----------------------------------------------------------------------------|
 E|----------------------------------------------------------------------------|

~~~ pb bss
[F7]  
 
 e|-----------------------------------------------|
 B|----16h18---16-18-(18)20-18----16-18-16--------|
 G|------------------------------------------17\--|
 D|-----------------------------------------------|
 A|-----------------------------------------------|
 E|-----------------------------------------------|

co co
 
 e|----17p15---------17p15----17p15---------17p15----15-------15--------|
 B|----------16-(16)-------16-------16-(16)-------16----15b16----15b17--|
 G|---------------------------------------------------------------------|
 D|---------------------------------------------------------------------|
 A|---------------------------------------------------------------------|
 E|---------------------------------------------------------------------|

~~~~~~ co co co
[C7]  
 
 e|-----------------------------------------------------------------------------------|
 B|----13------------------11--13--11--13--11--13b16--13b16--13b16--13b16r13--11--13--|
 G|-----------------------------------------------------------------------------------|
 D|-----------------------------------------------------------------------------------|
 A|-----------------------------------------------------------------------------------|
 E|-----------------------------------------------------------------------------------|

~~~~~~~~ co ~~~~~~~~ co
 
 e|---------------------------------------------------------------------------------|
 B|----11h13p11------(11)----(11)\-----------------------------------8h11p8---------|
 G|-------------------------------------8--10--8h10----8--------(8)----------10b12--|
 D|---------------------------------------------------------------------------------|
 A|---------------------------------------------------------------------------------|
 E|---------------------------------------------------------------------------------|

co ~~~ co co co
[G7]  
 
 e|---------------------------------------------------------|
 B|----8h11--8h11-(11)-(11)--8h11----8h11-8h11--8h11p8------|
 G|---------------------------------------------------------|
 D|---------------------------------------------------------|
 A|---------------------------------------------------------|
 E|---------------------------------------------------------|

co co co co bss co
[F7]  
 
 e|---------------------------------------------------|
 B|----11h13-13--13b16-11-13----8---------------------|
 G|--------------------------10----8------------8h10--|
 D|----------------------------------10----8h10-------|
 A|-------------------------------------10------------|
 E|---------------------------------------------------|

~~~ co ~~~~
[C7] [F7]  
 
 e|-----------------------------------------------------------|
 B|---------15b17r15-13----16b18--16--(16)-13-15----15b17-15--|
 G|----8----------------14-----------------------14-----------|
 D|-----------------------------------------------------------|
 A|-----------------------------------------------------------|
 E|-----------------------------------------------------------|

~~~ co ~~~ bss co
[C7] [G7]  
 
 e|--------------------------------------------------|
 B|----13-15-13----------8--8--------8---------------|
 G|------------------/9----------10-----8------8h10--|
 D|----------------------------------------10--------|
 A|--------------------------------------------------|
 E|--------------------------------------------------|

Verse 3
~~~ ~~~~~~~~~~~
[C7]  
 
 e|-------------------------------|-------------------------------------|
 B|-------------10b11--10--8------|-------------------10b11--10--8------|
 G|----8----------------------10--|--8h9--(9)----(9)----------------10--|
 D|-------------------------------|-------------------------------------|
 A|-------------------------------|-------------------------------------|
 E|-------------------------------|-------------------------------------|

~~~~~ ~~~ bss co
 
 e|-----------------------------------|-------------------11--(11)--13b15--|
 B|---------------------10b11--10--8--|--13--------11h13-------------------|
 G|----8h9--(9)-----------------------|------------------------------------|
 D|-----------------------------------|------------------------------------|
 A|-----------------------------------|------------------------------------|
 E|-----------------------------------|------------------------------------|

~~~~~~~~~~ rpb co co ~~~ co
[F7]  
 
 e|------------------------------|--13b15--(15)--13--13--11-13-11--\3--(3)/--|
 B|----13------(13)----(13)------|-------------------------------------------|
 G|------------------------------|-------------------------------------------|
 D|------------------------------|-------------------------------------------|
 A|------------------------------|-------------------------------------------|
 E|------------------------------|-------------------------------------------|

[C7]  
 
 e|-----------------------------------------------------------|
 B|----11h13-11h13-11h13-11h13-11h13-11h13-11h13-11h13-11h13--|
 G|-----------------------------------------------------------|
 D|-----------------------------------------------------------|
 A|-----------------------------------------------------------|
 E|-----------------------------------------------------------|

~~~
 
 e|----------------------------------------------------------------|
 B|----11h13-11h13-11h13-11h13-11h13-11h13-------11----------------|
 G|-----------------------------------------/12------12\10--8------|
 D|------------------------------------------------------------10--|
 A|----------------------------------------------------------------|
 E|----------------------------------------------------------------|

~~~~~ bss ~~~~~~
[F7]  
 
 e|-------------------------------------------|
 B|-------------------------------------------|
 G|----8/10------8----------------------------|
 D|-----------------------10------(10)--------|
 A|-------------------------------------------|
 E|-------------------------------------------|

pb co ~~~~
 
 e|--------------------------------------------------------------|
 B|----15b16--15-(15)16-15b16-r15-b16--15--13--15------13--(13)--|
 G|------------------------------------------------14------------|
 D|--------------------------------------------------------------|
 A|--------------------------------------------------------------|
 E|--------------------------------------------------------------|

co co co ~~~~
[C7]  
 
 e|--------------------------|--------------------------------------------------------|
 B|--------------------------|--------------------------------------------------------|
 G|-------------------0-3-5--|--5b8--r5--3h5--3h5----3----(3)--5-3--------------------|
 D|--------------------------|-------------------------------------5-4-3\1-3-1---1-3--|
 A|--------------------------|-------------------------------------------------3------|
 E|--------------------------|--------------------------------------------------------|

~~~~~ bss co ~~~~
[G7] [F7]  
 
 e|-----------------------------------------------|-----------------------------------|
 B|-----------------------------8--11--8---11--8--|--11------(11)/--------------------|
 G|------------3----------------------------------|-----------------------------------|
 D|----/5-----------------------------------------|-----------------------------------|
 A|-----------------------------------------------|-----------------------------------|
 E|-----------------------------------------------|-----------------------------------|

co co co co
[C7] [F7]  
 
 e|------------------8------------------------------------------|
 B|---------------8-----11b13-11b13-11b13-11b13r11p8----8-------|
 G|--------10b12-------------------------------------10---8h10--|
 D|-------------------------------------------------------------|
 A|-------------------------------------------------------------|
 E|-------------------------------------------------------------|

~~~ ~~~ ~~~~
[C7] [C#7] [C7]  
 
 e|----------------------------12--(12)------|
 B|----------------------10----11--(11)------|
 G|----8-----------------------12--(12)------|
 D|-------10--10--(10)-----------------------|
 A|------------------------------------------|
 E|------------------------------------------|

Varse 1
[C7]I‚??m a sleepy time, baby
[C7]A sleepy time boy
[C7]Work only maybe
[C7]Life is a joy
Chorus
We‚??ll have [F7]a sleepy time time[F7]
We‚??ll have [C7]a sleepy time time[C7]
We‚??ll have [F7]a sleepy time time[F7]
We‚??ll have [C7]a sleepy time time[C7]
[G7]Sleepy time time[F7]
Sleepy time time all the [C7]time[F7]
[C7] [G7]  
Verse 2
[C7]Asleep in the daytime
[C7]Asleep at night
[C7]Life is all playtime
[C7]Workin‚?? ain‚??t right
Chorus
We‚??ll have [F7]a sleepy time time[F7]
We‚??ll have [C7]a sleepy time time[C7]
We‚??ll have [F7]a sleepy time time[F7]
We‚??ll have [C7]a sleepy time time[C7]
[G7]Sleepy time time[F7]
Sleepy time time all the [C7]time[F7]
[C7] [G7]  
Solo
[C7] [C7] [C7] [C7]  
[F7] [F7] [C7] [C7]  
[G7] [F7] [C7] [F7] [C7] [G7]  
Verse 3
[C7]I have my Sunday
[C7]That ain‚??t no lie
[C7]But on Monday morning
[C7]Came my favourite cry
Chorus
We‚??ll have [F7]a sleepy time time[F7]
We‚??ll have [C7]a sleepy time time[C7]
We‚??ll have [F7]a sleepy time time[F7]
We‚??ll have [C7]a sleepy time time[C7]
[G7]Sleepy time time[F7]
Sleepy time time all the [C7]time[F7]
[C7]  
/ slide up
\ slide down
h hammer-on
p pull-off
b bend up
r release bend
mu mute
pb pre-bend
co cut off
bss bend slightly sharp
rpb re-pick bend
~~ vibrato
====================================================================== 09 April 2010

Important: The song above is NOT stored on the Chordie server. The original song is hosted at www.azchords.com. Chordie works as a search engine and provides on-the-fly formatting. Chordie does not index songs against artists'/composers' will. To remove this song please click here.

Text color:
Chord color:
Chord grids: 
Font size:    
Page size: 

C C#7 C7 F7 G7
Rate #1 of 3 versions

Login - add to songbook

SHARE PAGE  



You need to log in to post comments