Guitar Tabs, Chords and Lyrics
Update 25:10. 13:00. Site is back up running again. Songbooks are recovered. Woring on getting search back up..


Tales of Brave Ulysses  Cream

x 0 2 0 2 0 [A7] x x 0 2 3 2 [D]x 3 2 0 1 0 [C]x 0 2 2 2 0[A]
Gtr I (E A D G B E) - 'Eric Clapton - Electric Guitar'
Gtr II (E A D G B E) - 'Eric Clapton - Electric Guitar'
Intro
Q=112
D N.C.
[4/4] Gtr I
W W W S E S Q +H
 
 |-2--------|----------|----------|-----------------|
 |-3--------|----------|----------|---1---3--(3)----|
 |-2--------|----------|----------|-2---2-----------|
 |-0--------|----------|----------|-0---------------|
 |----------|----------|----------|-----------------|
 |----------|----------|----------|-----------------|

Pre-Verse
S S E S S E +H H H E S S +S S E S S E +S S S S
 
 |-------0------------||-----------|-------------------------------|
 |---------1-3-(3)----||-----------|---1h3-(3)-1h3-1---1-(1)-1-1h3-|
 |-0h2-2--------------||-----------|-----------------2-------2-2---|
 |-0------------------||-0---------|-------------------------------|
 |--------------------||------3----|-2-----------------------------|
 |--------------------||-----------|-------------------------------|

Q. +S S Q. +S S Q. +S S Q Q [D]Q Q [C]Q Q [G/B]Q Q [Bb]Q Q
 
 |-----------------------|------------------||-------------|--------------|
 |-----------------------|------------------||-------------|--------------|
 |-----------------------|------------------||-7--7--5--5--|-4--4--3--3---|
 |-0----(0)--------------|------------------||-------------|--------------|
 |----------5S3----(3)-3S|=2----(2)-2S1--3--||-------------|--------------|
 |-----------------------|------------------||-------------|--------------|

|
| Gtr II
| W W Q Q Q Q Q Q Q Q
 
 |-----------------------|------------------||-------------|--------------|
 |-----------------------|------------------||----3--------|--------------|
 |-----------------------|------------------||----2-----0--|----0-----0---|
 |-----------------------|------------------||-0--------0--|----0-----0---|
 |-----------------------|------------------||-------3-----|-2-----1------|
 |-----------------------|------------------||-------------|--------------|

1st - 3rd Verses
$
[D]Q Q [C]Q Q [G/B]Q Q [Bb]Q Q [D]Q Q [C]Q Q [G/B]Q Q [Bb]Q Q
 
 |-------------|-------------||--------------|-------------|
 |-------------|-------------||o----3--------|-------------|
 |-7--7--5--5--|-4--4--3--3--||-----2-----0--|----0-----0--|
 |-------------|-------------||--0--------0--|----0-----0--|
 |-------------|-------------||o-------3-----|-2-----1-----|
 |-------------|-------------||--------------|-------------|

|
| Q Q Q Q Q Q Q Q Q Q Q Q Q Q Q Q
 
 |-------------|-------------||--------------|-------------|
 |----3--------|-------------||o-------------|-------------|
 |----2-----0--|----0-----0--||--7--7--5--5--|-4--4--3--3--|
 |-0--------0--|----0-----0--||--------------|-------------|
 |-------3-----|-2-----1-----||o-------------|-------------|
 |-------------|-------------||--------------|-------------|

[D]Q Q [C]Q Q [G/B]Q Q [Bb]Q Q [D]Q Q [C]Q Q [G/B]Q Q [Bb]Q Q
 
 |-------------|-------------|-------------|-------------|
 |----3--------|-------------|----3--------|-------------|
 |----2-----0--|----0-----0--|----2-----0--|----0-----0--|
 |-0--------0--|----0-----0--|-0--------0--|----0-----0--|
 |-------3-----|-2-----1-----|-------3-----|-2-----1-----|
 |-------------|-------------|-------------|-------------|

|
| Q Q Q Q Q Q Q Q Q Q Q Q Q Q Q Q
 
 |-------------|-------------|-------------|-------------|
 |-------------|-------------|-------------|-------------|
 |-7--7--5--5--|-4--4--3--3--|-7--7--5--5--|-4--4--3--3--|
 |-------------|-------------|-------------|-------------|
 |-------------|-------------|-------------|-------------|
 |-------------|-------------|-------------|-------------|

1.
To Coda
[D] [C] [G/B] [Bb] Gtr[A7] II[D] [C]
W W Q E E E E Q E E Q Q Q
| | | | | | | | | | |
[/] [/] [/] [/] [/] [/] [/] [/] [/] [/] [/] 
Q Q Q Q Q Q Q Q Q Q Q E E S S E S S E E S S S S E
 
 |-------------|-------------||-9--9-----------|---------------5-----------|
 |----3--------|-------------||-8--8---8-----8-|-----------------8p5-5-5---|
 |----2-----0--|----0-----0--||-9--9---9---9---|-9s7p5-7p5-7b9-----------7-|
 |-0--------0--|----0-----0--||----------------|---------------------------|
 |-------3-----|-2-----1-----||----------------|---------------------------|
 |-------------|-------------||----------------|---------------------------|

|
| Q Q Q Q Q Q Q Q W W
 
 |-------------|-------------||----------------|---------------------------|
 |-------------|-------------||----------------|---------------------------|
 |-7--7--5--5--|-4--4--3--3--||----------------|---------------------------|
 |-------------|-------------||----------------|---------------------------|
 |-------------|-------------||----------------|---------------------------|
 |-------------|-------------||----------------|---------------------------|

[A]E E Q E E Q
| | | | | |
[/] [/] [/] [/] [/] [/]  
Q S S E S S S S S S E
 
 |----------------------------5-|
 |--------------------------5---|
 |-5tr6---------5-7-7p5-7b9-----|
 |--------7p5-7-----------------|
 |------------------------------|
 |------------------------------|

2.
E E Q [D]Q [C]Q [A]Q Q E E Q
| | | | | | | | | |
[/] [/] [/] [/] [/] [/] [/] [/] [/] [/] 
~
 
 |----3----| |-3-|

S S E S +S E E S S E Q E. S E. S S S S S S S S E
 
 |-----------------------------||-------------------------------|
 |-8p5-3----------------------o||-----8-----5---------------10--|
 |-------7b9r(7)-7-5-7-5-------||-7b9---7b9---7p5h7p5---7s9-----|
 |-----------------------7-7---||---------------------7---------|
 |----------------------------o||-------------------------------|
 |-----------------------------||-------------------------------|

E E Q [D]Q [C]Q [A]Q Q E E Q
| | | | | | | | | |
[/] [/] [/] [/] [/] [/] [/] [/] [/] [/] 
~
|-3-| |-3-|
Q E. S S S S S S S S E E E E Q S S S S S S S S
 
 |----------8p5h8p5-----------|---------------------------|
 |-----/10--------------------|----------8---8-8h10-8-----|
 |------------------7p5h7p5---|-7-5-7s9----9----------9s7-|
 |--------------------------7-|---------------------------|
 |----------------------------|---------------------------|
 |----------------------------|---------------------------|

Interlude
D C N.C.
E E Q Q Q W W
| | | | |
[/] [/] [/] [/] [/]  
 
 |-----3-----|

S S S S S S S S S +S E E S S S S W H S E. S E.
 
 |-------------5-------------------------||----------|-----------------|
 |---------5-5---8-----------------------||----------|------5----5h7---|
 |-5---7-5-5-5-----7b9==(7)r-7-5-7-5---5-||-7--------|------5h7--------|
 |---7-------------------------------7---||----------|-----------------|
 |---------------------------------------||----------|-----------------|
 |---------------------------------------||----------|-----------------|

Interlude
D.S. al Coda &
[D] [C] 
Gtr I[3/4] [4/4]
W H S E. Q Q Q Q Q Q Q E E
 
 |----------|--------------||----------------||---------------------|
 |----------|--------------||-------3--------||-/13--13--13\--------|
 |----------|-----------5--||--7---(2)---5---||-/14--14--14\--12-10-|
 |----------|------5h7-----||----------------||---------------------|
 |-5--------|--------------||-(5)-------(3)--||---------------------|
 |----------|--------------||----------------||---------------------|

|
| Gtr II
| W W W Q Q Q Q
 
 |----------|--------------||----------------||---------------------|
 |----------|--------------||----------------||-------3-------------|
 |----------|--------------||----------------||-------2--------0----|
 |----------|--------------||----------------||---0------------0----|
 |----------|--------------||----------------||-----------3---------|
 |----------|--------------||----------------||---------------------|

[G/B] ~~~~~~~~~[Bb]
Q E S S S S +S S S S S S
 
 |-----------10----------------------------------|
 |--------10----13p10----------------------------|
 |-12b14--------------12pb14r(12)-10-12----10-12-|
 |--------------------------------------12-------|
 |-----------------------------------------------|
 |-----------------------------------------------|

|
| Q Q Q Q
 
 |-----------------------------------------------|
 |-----------------------------------------------|
 |---------0--------------------------0----------|
 |---------0--------------------------0----------|
 |--2---------------1----------------------------|
 |-----------------------------------------------|

[D] [C] |--3--|
E S S S S S S S S S S S S S S S
 
 |-------10-----------------------------------10----------|
 |----------13-10--------------------------10----13p10----|
 |-12b14----------12pb14-12-10-12----10-12-------------12-|
 |--------------------------------12----------------------|
 |--------------------------------------------------------|
 |--------------------------------------------------------|

|
| Q Q Q Q
 
 |--------------------------------------------------------|
 |--------------3-----------------------------------------|
 |--------------2---------------------------0-------------|
 |--0---------------------------------------0-------------|
 |------------------------------3-------------------------|
 |--------------------------------------------------------|

[G/B] [Bb]  
 
 |--3--| |3-| |--3--|

S S S S S S S S S S S S E S S S E
 
 |-------------------------10-------------------------|
 |-10-------------------------13p10-------------------|
 |----12p10----12----10h12----------12s14-10-12-10-12-|
 |----------12----12----------------------------------|
 |----------------------------------------------------|
 |----------------------------------------------------|

|
| Q Q Q Q
 
 |----------------------------------------------------|
 |----------------------------------------------------|
 |--------------0--------------------------0----------|
 |--------------0--------------------------0----------|
 |--2-----------------------1-------------------------|
 |----------------------------------------------------|

[D] Q Q [C]H [G/B]H [Bb]S E S S S E
 
 |--------------|-------------------|
 |--------------|-----------5h7-5h7-|
 |-10-----------|-----------5h7-5h7-|
 |--------------|-------5h7---------|
 |--------------|-------------------|
 |--------------|-------------------|

|
| Q Q Q Q Q Q Q Q
 
 |--------------|-------------------|
 |-----3--------|-------------------|
 |-----2-----0--|----0--------0-----|
 |--0--------0--|----0--------0-----|
 |--------3-----|-2-----1-----------|
 |--------------|-------------------|

Outro Guitar Solo
D C N.C. D C
W [3/4] H e E [4/4] Q Q Q Q
 
 |-------------||----------||-----------------|
 |-------------||----------||-----------------|
 |-------------||-5--------||-----------------|
 |-0-----------||-5----7---||-12--12--12--12--|
 |-------------||----------||-----------------|
 |-------------||----------||-----------------|

|
| Q Q Q Q W Q Q Q Q
 
 |-------------||----------||-----------------|
 |----3--------||----------||------3----------|
 |----2-----0--||----------||------2-------0--|
 |-0--------0--||----------||--0-----------0--|
 |-------3-----||----------||----------3------|
 |-------------||----------||-----------------|

[G/B] [Bb]  
 
 |-----3-----| |------3-------| |------3-------| |------3-------|

E S S S S S S S S S S S S S S S S S S S S S S
 
 |---------------------------------------------------------------------|
 |---------------------------------------------------------------------|
 |---12p10----10h12p10----10h12p10----10h12p10----10h12p10----10-12p10-|
 |---------12----------12----------12----------12----------12----------|
 |---------------------------------------------------------------------|
 |---------------------------------------------------------------------|

|
| Q Q Q Q
 
 |---------------------------------------------------------------------|
 |---------------------------------------------------------------------|
 |----------------0-----------------------------------0----------------|
 |----------------0-----------------------------------0----------------|
 |-2--------------------------------1----------------------------------|
 |---------------------------------------------------------------------|

[D] [C] ~~
 
 |------3-------| |------3-------| |-----3-----|

S S S S S S S S S S S S S S S S E Q
 
 |---------------------------------------------------------|
 |---------------------------------------------------------|
 |----10h12p10----10h12p10----10-12p10----10-12-10---------|
 |-12----------12----------12----------12----------12-12---|
 |---------------------------------------------------------|
 |---------------------------------------------------------|

|
| Q Q Q Q
 
 |---------------------------------------------------------|
 |--------------------3------------------------------------|
 |--------------------2--------------------------------0---|
 |--0--------------------------------------------------0---|
 |--------------------------------------3------------------|
 |---------------------------------------------------------|

[G/B] [Bb]  
 
 |--3--| |3-| |--3--|

S S S E S +E E E S S S S S S +S
 
 |--------------------------10---------------------------|
 |-----------------------------13p10-------10------------|
 |-----------------------------------12b14----12b14r(12)-|
 |-12-10----10-12-(12)/----------------------------------|
 |-------12----------------------------------------------|
 |-------------------------------------------------------|

|
| Q Q Q Q
 
 |-------------------------------------------------------|
 |-------------------------------------------------------|
 |------------------0-----------------0------------------|
 |------------------0-----------------0------------------|
 |--2---------------------1------------------------------|
 |-------------------------------------------------------|

[D] ~~~~~ [C] ~~~~~ [G/B] ~~~~~~[Bb]~~~~~~~~~~~~~
 
 |--3---| |3-| |--3--| |--3--|

S S +S E S E. S E. S S +S S S S S S S E +S E. +Q Q
 
 |---------------------------------------------------------|-------------10-(10)---------------13-----|
 |------------------------10-------------------------------|---------------------13b15==(13)r--13b15--|
 |-10-12-(12)----10-12b14----12b14-12-12pb14r(12)-10h12p10-|----10-12b14------------------------------|
 |------------12-------------------------------------------|-12---------------------------------------|
 |---------------------------------------------------------|------------------------------------------|
 |---------------------------------------------------------|------------------------------------------|

|
| Q Q Q Q Q Q Q Q
 
 |---------------------------------------------------------|------------------------------------------|
 |-------------------3-------------------------------------|------------------------------------------|
 |-------------------2-----------------0-------------------|------------------0-----------------0-----|
 |--0----------------------------------0-------------------|------------------0-----------------0-----|
 |----------------------------3----------------------------|--2---------------------------1-----------|
 |---------------------------------------------------------|------------------------------------------|

[D] ~~~~~ [C] [G/B] [Bb] ~~~~~~~
 
 |----------3----------| |-----3-----|

H S S S S S +S S S S S E. S S +S S +S S E S S +E S S
 
 |-13--------13----13-15-15b17==(15)r-15-13h15p13-|-----13-15b17==(15)r-15pb17r(15)p13-15-13---------13----|
 |-13b15--------15--------------------------------|-15---------------------------------------15-(15)----15-|
 |------------------------------------------------|--------------------------------------------------------|
 |------------------------------------------------|--------------------------------------------------------|
 |------------------------------------------------|--------------------------------------------------------|
 |------------------------------------------------|--------------------------------------------------------|

|
| Q Q Q Q Q Q Q Q
 
 |------------------------------------------------|--------------------------------------------------------|
 |--------3---------------------------------------|--------------------------------------------------------|
 |--------2---------------0-----------------------|---------0-------------------------------------0--------|
 |--0---------------------0-----------------------|---------0-------------------------------------0--------|
 |------------3-----------------------------------|--2----------------------------------1------------------|
 |------------------------------------------------|--------------------------------------------------------|

[D] [C] ~~~~~
 
 |-----3-----| |--3--| |-----3------|

E S S S S S S S S +S S E. S +Q
 
 |--------------------------------------------------------------|
 |---------------------------------------10-------13b15==(13)r--|
 |-\12-10h12p10-------12p10-12b14==(12)r----12b14---------------|
 |--------------12-12-------------------------------------------|
 |--------------------------------------------------------------|
 |--------------------------------------------------------------|

|
| Q Q Q Q
 
 |--------------------------------------------------------------|
 |------------------3-------------------------------------------|
 |------------------2--------------------------------------0----|
 |---0-----------------------------------------------------0----|
 |-------------------------------------------3------------------|
 |--------------------------------------------------------------|

[G/B] ~~~~[Bb]
 
 |-----3------| |---------3---------|

+E S S S S S S +S +S E S S S S S +E.
 
 |------10----------------------------------------------------------|
 |-(13)----13-10----10----------------------------------------------|
 |---------------12----12b14==(12)r(12)-10-12p10----10-12b14==(12)r-|
 |-----------------------------------------------12-----------------|
 |------------------------------------------------------------------|
 |------------------------------------------------------------------|

|
| Q Q Q Q
 
 |------------------------------------------------------------------|
 |------------------------------------------------------------------|
 |-------------------0----------------------------------0-----------|
 |-------------------0----------------------------------0-----------|
 |---2--------------------------------------1-----------------------|
 |------------------------------------------------------------------|

[D] ~~~~~~~~~~~~~[C]~~~~~~~~~~~~~
Q Q Q Q
 
 |-----------------------------|
 |-----------------------------|
 |-12b14--12b14--12b14--12b14--|
 |-----------------------------|
 |-----------------------------|
 |-----------------------------|

|
| Q Q Q Q
 
 |-----------------------------|
 |---------3-------------------|
 |---------2-------------0-----|
 |--0--------------------0-----|
 |----------------3------------|
 |-----------------------------|

[G/B] [Bb]  
 
 |-------------3--------------|

S +S S +S S +S T +T T +T S +S S +S S +S E S +S
 
 |-----------------------------------------------------------------------------------------------------------|
 |-----------------------------------------------------------------------------------------13----------------|
 |-12b14-(12)-12b14-(12)-12b14-(12)-12b14-(12)-12b14-(12)-12b14-(12)-12b14-(12)-12b14-(12)-12b14-12pb14r(12)-|
 |-----------------------------------------------------------------------------------------------------------|
 |-----------------------------------------------------------------------------------------------------------|
 |-----------------------------------------------------------------------------------------------------------|

|
| Q Q Q Q
 
 |-----------------------------------------------------------------------------------------------------------|
 |-----------------------------------------------------------------------------------------------------------|
 |------------------------0-----------------------------------------------------------------0----------------|
 |------------------------0-----------------------------------------------------------------0----------------|
 |--2------------------------------------------------------1-------------------------------------------------|
 |-----------------------------------------------------------------------------------------------------------|

[D] [C] ~~
|--3--|
E E E S S S S H
 
 |------------------------------*|
 |-------------10---------------*|
 |-10-12-10-12----12-10---------*|
 |----------------------12------*|
 |------------------------------*|
 |------------------------------*|

|
| Q Q Q Q
 
 |------------------------------*|
 |-----------3------------------*|
 |-----------2--------------0---*|
 |--0-----------------------0---*|
 |-----------------------3------*|
 |------------------------------*|


Important: The song above is NOT stored on the Chordie server. The original song is hosted at www.azchords.com. Chordie works as a search engine and provides on-the-fly formatting. Chordie does not index songs against artists'/composers' will. To remove this song please click here.

Text color:
Chord color:
Chord grids: 
Font size:    
Page size: 

A A7 Bb C D G/B
Rate #5 of 7 versions

Login - add to songbook

SHARE PAGE  




You need to log in to post comments