Guitar Tabs, Chords and Lyrics
Update 25:10. 13:00. Site is back up running again. Songbooks are recovered. Woring on getting search back up..


Hide  Creed

I just figured this out and I don‚??t know if its right for sure but it sounds really good.
Guitar 1 intro standard tuning hr = hammer release
 
 --------------------------------------
 --------------------------------------
 --------------------------------------
 --------0--1hr-----0--0--1hr ------1-- repeat 4 times
 -----1----------1----------------1----
 --------------------------------------

Guitar 2 intro standard tuning (but capo 1)‚?¶tab relative to capo
 
 -------------------------0--------0---
 ---------0-----------------0------0---
 ------2-----2-----2---2------2----2---
 ----2---------------2-------2-----2--- repeat through song
 --0----------------------------0------
 ---------------4----------------------

guitar 2 standard tuning (but capo 1)
To w[Asus2]hat do I owe t[E]his gift my fr[Asus2]iend?
My l[Asus2]ife, my love, my soul?
I‚??[Asus2]ve been dancing with the[E] devil
way too [Asus2]long
it‚??[Asus2]s making me gr[Asus2]ow old[E]
Maki[E]ng me grow [Asus2]old
L[Asus2]et‚??s leave‚?¶oh let‚??s get away
[E]Get lost in time
[Asus2]Where there‚??[E]s no reason left t[Asus2]o hide
Let‚??s leave‚?¶oh let‚??s get away
Run in fields of time
Where there‚??s no reason to hide
What are you going to do with
your gift dear child?
Give life, give love, give soul?
Divided is the one who dances
For the soul is so exposed
So exposed
Let‚??s leave‚?¶oh let‚??s get away
Get lost in time
Where there‚??s no reason to hide

Important: The song above is NOT stored on the Chordie server. The original song is hosted at www.azchords.com. Chordie works as a search engine and provides on-the-fly formatting. Chordie does not index songs against artists'/composers' will. To remove this song please click here.

Text color:
Chord color:
Chord grids: 
Font size:    
Page size: 

Asus2 E
Rate #1 of 7 versions

Jango Player

Login - add to songbook

SHARE PAGE  



You need to log in to post comments