Guitar Tabs, Chords and Lyrics
Update 25:10. 13:00. Site is back up running again. Songbooks are recovered. Woring on getting search back up..


Big Neon Glitter  The Cult

Intro:
[D]  
 
 e|---------------------------------------------------|
 B|---------------------------------------------------|
 G|---------------7-7---------------------------------|12X
 D|---------7-7---------------------------------------|
 A|---5-5-5-----5-------------------------------------|
 E|---------------------------------------------------|

Riff 1:
c/d D F C
 
 e|------------------------------|
 B|------------------------------|
 G|---5/7---7-7-7---10---5-------|Guitar 1
 D|---5/7---7-7-7----8---5-------|
 A|---3/5---5-5-5----8---3-------|
 E|------------------------------|

Riff 2:
[D]  
 
 e|---------------------------------------------|
 B|---------------------------------------------|
 G|-----------------------------------------7---|
 D|---7--5--7-----7--5--7-----7--5??-7-----7---7-|2x guitar2 junto com guitar1
 A|-5----------5-----------5-----------5--------| (após o slide do riff 1)
 E|---------------------------------------------|

Riff 3:
 
 e|--------------------------------|
 B|-----10-8-10--------------------|6X
 G|---7----------------------------|
 D|--------------------------------|
 A|---------------------------------
 E|--------------------------------|

final da intr.
 
 e|--------------------------------|
 B|-----10-8-10---10---------------|
 G|---7--------------8-------------|
 D|--------------------7-----------|
 A|---------------------------------
 E|--------------------------------|

Oh[D], drag me back, and drag me back
And drag me back, drag me back, drag me back
Through the revolution,[F] without solu[C]tion [D]
[D]And the walls get taller
While ye get smaller
While we get smaller
The f[F]ear is get[C]ting talle[D]r
Junto com Riff2
A bi[D]g neon glitter pushes onto you, oh baby[F] [C]
Sex from the hip at the crack of a whip, oh ye[F]ah [C]
The wa[D]ll gets taller while ye get smaller, yeah [F] [C]
Push against the big neon glitt[D]er, pushes onto you[F]
None may [C]indeed go out
Oh, drag me[C/D] back, drag me back
And drag me back, drag me back, drag me back
Through the revolutio[F]n, without solu[C]tion [D]
And t[D]he wall gets taller
While ye get smaller
While ye get smaller
?.[F] [C] [D]
 
 e|--------------------------------|
 B|-----10-8-10--------------------|6X
 G|---7----------------------------|
 D|--------------------------------|
 A|---------------------------------
 E|--------------------------------|
 e|-------------------10----------10----------10----|
 B|-----10-8-10----10----10----10----10----10----10-|
 G|---7----------7-----------7-----------7----------|
 D|--------------------------------------------------|
 A|-------------------------------------------
 E|------------------------------------------|

Intr.
A big neon
A big neon
A big neon glitter Riff2
A big neon glitter
 
 e|--------------------------------|
 B|-----10-8-10--------------------|7X
 G|---7----------------------------|
 D|--------------------------------|
 A|---------------------------------
 E|--------------------------------|
 e|--------------------------------|
 B|---10-8-6--------------------|
 G|----------6-7--------------------|
 D|--------------------------------|
 A|---------------------------------
 E|--------------------------------|

A big neon
A big neon
A big neon glitter
A big neon glitter
A big neon glitter

Important: The song above is NOT stored on the Chordie server. The original song is hosted at www.azchords.com. Chordie works as a search engine and provides on-the-fly formatting. Chordie does not index songs against artists'/composers' will. To remove this song please click here.

Text color:
Chord color:
Chord grids: 
Font size:    
Page size: 

C C/D D F
Rate #1 of 1 versions

Login - add to songbook

SHARE PAGE  



You need to log in to post comments