Guitar Tabs, Chords and Lyrics
Update 25:10. 13:00. Site is back up running again. Songbooks are recovered. Woring on getting search back up..


Brother Wolf, Sister Moon  The Cult

INTRO
[Em] [D/Gb]  
 
 e|--------------------------|---------------------------|
 B|--------------------------|---------------------------|
 G|--------------------------|---------------------------|
 D|----2-----2-----2-----2---|----0-----0-----0-----0----|
 A|------2-----2-----2-----0-|------0-----0-----0-----0--|
 E|--0-----0-----0-----0-----|--2-----2-----2-----2------|

[G5] [Em]  
 
 e|--------------------------|---------------------------|
 B|--------------------------|---------------------------|
 G|--------------------------|---------------------------|
 D|----0-----0-----0-----0---|----2-----2-----2-------2--|
 A|------2-----2-----0-----0-|------2-----2-----2-0h2--2-|
 E|--3-----3-----3-----2-----|--0-----0-----0------------|

RIFF A (4X)
[Em] [D/Gb]  
 
 e|--------------------------|---------------------------|
 B|--------------------------|---------------------------|
 G|--------------------------|---------------------------|
 D|----2-----2-----2-----2---|----0-----0-----0-----0----|
 A|------2-----2-----2-----0-|------0-----0-----0-----0--|
 E|--0-----0-----0-----0-----|--2-----2-----2-----2------|

1. Embrace the Wind with both arms
2. Hang your head no more
3. Brother Wolf and Sister Moon
4. Brother Wolf and Sister Moon
[G5] [Em]  
 
 e|--------------------------|---------------------------|
 B|--------------------------|---------------------------|
 G|--------------------------|---------------------------|
 D|----0-----0-----0-----0---|----2-----2-----2-----2----|
 A|------2-----2-----0-----0-|------2-----2-----2-----2--|
 E|--3-----3-----3-----2-----|--0-----0-----0-----0------|

1. Stop the Clouds dead in the Sky
2. And beg no more
3. Your Time has come
4. Your Time has come
(Strum the rest of the song until the OUTRO)
CHORUS
[G] [Bb] [Ab7] [A]  
 
 e|--3-----------3--------0--|
 B|--0-----3-----1--------2--|
 G|--0-----3-----2--------2--|
 D|--0-----3-----0--------2--|
 A|--2-----5--------------0--|
 E|--3-----6-----------------|

VERSE
[Em] [D/Gb] [G5] [G5/Gb]  
 
 e|--0-----------3-----3-----|
 B|--0-----3-----3-----3-----|
 G|--0-----2-----0-----0-----|
 D|--2-----0-----0-----0-----|
 A|--2-----0-----2-----0-----|
 E|--0-----2-----3-----2-----|

PRE-CHORUS
[Em] [D] [G5] [D]  
 
 e|--0-----2-----3-----2-----|
 B|--0-----3-----3-----3-----|
 G|--0-----2-----0-----2-----|
 D|--2-----0-----0-----0-----|
 A|--2-----------2-----------|
 E|--0-----------3-----------|

CHORUS
And the [G]Wind will [Bb]blow my [Ab7]fears awa[G]y
Will [Bb]dry my [Ab7]tears awa[G]y
And [Bb]dry my [Ab7]tears awa[G]y
And [Bb]blow my [A]fears‚?¶ away
VERSE
[Em]Embrace the Wind wi[D/Gb]th both arms
[G5]Stop the Clouds [G5/Gb]dead in the [Em]Sky
[Em]Hang your head no[D/Gb] more
[G5]And be[G5/Gb]g no [Em]more
PRE-CHORUS
[Em]Brother Wolf and[D] Sister Moon
[G5]Your Tim[D]e has [Em]come
[Em]Brother Wolf [D]and Sister Moon
[G5]Your Tim[D]e has [Em]come
CHORUS
[G]And the Wind will [Bb]blow my [Ab7]fears awa[G]y
Will [Bb]dry my [Ab7]tears awa[G]y
And [Bb]blow my [Ab7]fears awa[G]y
And [Bb]dry my [A]tears..away
SOLO
(The coolest thing you can do here is howl-sing the solo to these chords)
Em D/Gb G5 G5 D Em (4X)
CHORUS
[G]And the Wind will [Bb]blow my [Ab7]fears awa[G]y
Will [Bb]dry my [Ab7]tears awa[G]y
And [Bb]blow my [Ab7]fears awa[G]y
And [Bb]dry my, [Ab7]dry my tears a[G]way, yeah
EXTENDED CHORUS
[Bb] [C] [A4] [Bb] [G]  
 
 e|--------0-----0-----------3-----|
 B|--3-----1-----0-----3-----0-----|
 G|--3-----0-----2-----3-----0-----|
 D|--0-----2-----2-----0-----0-----|
 A|--5-----3-----0-----5-----2-----|
 E|--6-----------------6-----3-----|

Dry my tears a[Bb]way, yea[C]h[A4] [Bb] [G]
And [Bb]blow my[C], [A4]blow my f[Bb]ears aw[G]ay, yeah
And [Bb]blow my[C], [A4]blow my[Bb], b[G]low my
And [Bb]blow my[C]‚?[A]¶ fears away
OUTRO (RIFF A)
[Em] [D/Gb]  
 
 e|---------------------|---------------------|
 B|---------------------|---------------------|
 G|---------------------|---------------------|
 D|--2----2----2----2---|--0----0----0----0---|
 A|----2----2----2----0-|----0----0----0----0-|
 E|-0----0----0----0----|-2----2----2----2----|

[G5] [Em]  
 
 e|---------------------|------------------------|
 B|---------------------|------------------------|
 G|---------------------|------------------------|
 D|--0----0----0----0---|--2----2----2-------2---|
 A|----2----2----0----0-|----2----2----2-0h2---2-|
 E|-3----3----3----2----|-0----0----0------------|


Important: The song above is NOT stored on the Chordie server. The original song is hosted at www.azchords.com. Chordie works as a search engine and provides on-the-fly formatting. Chordie does not index songs against artists'/composers' will. To remove this song please click here.

Text color:
Chord color:
Chord grids: 
Font size:    
Page size: 

A A4 Ab7 Bb C D Em G G5
Rate #1 of 1 versions

Login - add to songbook

SHARE PAGE  




You need to log in to post comments