Guitar Tabs, Chords and Lyrics
Server problems seems to be fixed. Chordie has been experiencing problems with songs disappearing. These issues now seems to be fixed, but still verifying the fix. If you find anything strange, please email admin@chordie.com.


A Forest  The Cure

 

Mon Jul 6 10:58:45 PDT 1992
Keywords: cure guitar
Lines: 67
A FOREST
By The Cure
I'm not sure as to the correctness of my notes, and I haven't
sat down to figure out the solo, but this is the main part
The bassline is just the same 4 chords..
[A] [C] [F] [D]  
just the first two strings (E and A)...
the opening is like:
 
 --------------|--------------|-----------------|----------------|----
 --------------|--------------|-----------------|5357875353578753|----
 --------------|--------------|-----------------|----------------|----
 --3--2--1--2--|--3--2--1--2--|--3--5--7--3-2-1-|----------------|----
 -0--0--0--0---|-0--0--0--0---|-0--0--0--0--0-0-|----------------|----
 --------------|--------------|-----------------|----------------|----
 --------------|------------------------------------------------------
 --------------|------------------------------------------------------
 --------------|------------------------------------------------------
 --3--2--1--2--|------------------------------------------------------
 -0--0--0--0---|------------------------------------------------------
 --------------|------------------------------------------------------
 ---------

Hotel Chelsea BBS (206)/432-6904
"A FOREST"- The Cure
intro-live version
slow
 
 e----------------------|-----------------------|---------------------------|
 B----------------------|-----------------------|---------------------------|
 G----------------------|-----------------------|---------------------------|
 D----7----3----2----3--|-----7----3----2----3--|----7----9---10---3--------|
 A--0----0----0----0----|---0----0----0----0----|--0----0---0----0----------|
 E----------------------|-----------------------|---------------------------|
 e--0---0-2-3-2-0---0---0-2-3-2-0----|--------------------------------------|
 B----3-----------3---3-----------3--|--------------------------------------|
 G-----------------------------------|--------------------------------------|
 D-----------------------------------|-------7----3---2---3-----------------|
 A-----------------------------------|-----0----0---0---0-------------------|
 E-----------------------------------|--------------------------------------|

faster
 
 e------------------|-----------------|--------------------------------------|
 B------------------|-----------------|--------------------------------------|
 G------------------|-----------------|--------------------------------------|
 D----7---3---2---3-|---7---3---2---3-|---7---9---10---7---5---3---2---0-----|
 A--0---0---0---0---|-0---0---0---0---|-0---0---0----0---0---0---0---0---0---|
 E------------------|-----------------|------------------------------------0-|

Throughout most of song | Then
 
 e-------------------------|-----------------|-----------------|
 B-------------------------|-----------------|-----------------|
 G-------------------------|-----------------|-----------------|
 D------2-2-2-2-2-2-2-2----|-4-4-4-4-4-4-4-4-|-5-5-5-5-5-5-5-5-|
 A------0-0-0-0-0-0-0-0----|-2-2-2-2-2-2-2-2-|-3-3-3-3-3-3-3-3-|
 E-------------------------|-----------------|-----------------|

[1]^ [2] [3] [1]^ [2] [3] [1]^ [2] [1]^ [2] [3] [1]^ [2] [3] [1]^ [2] [1]^ [2] [3] [1]^ [2] [3] [1]^[2]
emphasis on the #1
 
 e-----------------|-----------------|-----------------|-----------------|
 B-----------------|-----------------|-----------------|-----------------|
 G-----------------|-----------------|-----------------|-----------------|
 D-----------------|-5-5-5-5-5-5-5-5-|-4-4-4-4-4-4-4-4-|-5-5-5-5-5-5-5-5-|
 A-4-4-4-4-4-4-4-4-|-3-3-3-3-3-3-3-3-|-2-2-2-2-2-2-2-2-|-3-3-3-3-3-3-3-3-|
 E-2-2-2-2-2-2-2-2-|-----------------|-----------------|-----------------|

[1]^ [2] [3] [1]^ [2] [3] [1]^ [2] [1]^ [2] [3] [1]^ [2] [3] [1]^ [2] [1]^ [2] [3] [1]^ [2] [3] [1]^ [2] [1]^ [2] [3] [1]^ [2] [3] [1]^[2]
 
 e-----------------|-----------------|
 B-----------------|-----------------|
 G-----------------|-----------------|
 D-----------------|-----------------|
 A-4-4-4-4-4-4-4-4-|-3-3-3-3-3-3-3-3-|
 E-2-2-2-2-2-2-2-2-|-1-1-1-1-1-1-1-1-|

[1]^ [2] [3] [1]^ [2] [3] [1]^ [2] [1]^ [2] [3] [4] [5] [6] [1]^[2]
Words:
verse 1 verse 2 verse 3
Come closer and see I hear her voice Suddenly I stop
See into the trees Calling my name But I know its too late
Find the girl The sound is deep Im los in a forest
While you can In the dark All alone
Come closer and see I hear her voice The girl was never there
See into the dark And start to run Its always the same
Just follow your eyes Into the trees Im running towards nothing
Just follow your eyes Into the trees Again and again and again...
comment/corrections welcome
 
 ---------------------------------------------------------------------------

A FOREST
By The Cure
I'm not sure as to the correctness of my notes, and I haven't
sat down to figure out the solo, but this is the main part
The bassline is just the same 4 chords..
[A] [C] [F] [D]  
just the first two strings (E and A)...
the opening is like:
 
 --------------|--------------|-----------------|----------------|----|
 --------------|--------------|-----------------|5357875353578753|----|
 --------------|--------------|-----------------|----------------|----|
 --3--2--1--2--|--3--2--1--2--|--3--5--7--3-2-1-|----------------|----|
 -0--0--0--0---|-0--0--0--0---|-0--0--0--0--0-0-|----------------|----|
 --------------|--------------|-----------------|----------------|----|
 --------------|------------------------------------------------------|
 --------------|------------------------------------------------------|
 --------------|------------------------------------------------------|
 --3--2--1--2--|------------------------------------------------------|
 -0--0--0--0---|------------------------------------------------------|
 --------------|------------------------------------------------------|
 ---------

Hotel Chelsea BBS (206)/432-6904
Mime-Version: 1.0
Status: O
"A FOREST"- The Cure
intro-live version
slow
 
 e----------------------|-----------------------|---------------------------|
 B----------------------|-----------------------|---------------------------|
 G----------------------|-----------------------|---------------------------|
 D----7----3----2----3--|-----7----3----2----3--|----7----9---10---3--------|
 A--0----0----0----0----|---0----0----0----0----|--0----0---0----0----------|
 E----------------------|-----------------------|---------------------------|
 e--0---0-2-3-2-0---0---0-2-3-2-0----|--------------------------------------|
 B----3-----------3---3-----------3--|--------------------------------------|
 G-----------------------------------|--------------------------------------|
 D-----------------------------------|-------7----3---2---3-----------------|
 A-----------------------------------|-----0----0---0---0-------------------|
 E-----------------------------------|--------------------------------------|

faster
 
 e------------------|-----------------|--------------------------------------|
 B------------------|-----------------|--------------------------------------|
 G------------------|-----------------|--------------------------------------|
 D----7---3---2---3-|---7---3---2---3-|---7---9---10---7---5---3---2---0-----|
 A--0---0---0---0---|-0---0---0---0---|-0---0---0----0---0---0---0---0---0---|
 E------------------|-----------------|------------------------------------0-|

Throughout most of song | Then
 
 e-------------------------|-----------------|-----------------|
 B-------------------------|-----------------|-----------------|
 G-------------------------|-----------------|-----------------|
 D------2-2-2-2-2-2-2-2----|-4-4-4-4-4-4-4-4-|-5-5-5-5-5-5-5-5-|
 A------0-0-0-0-0-0-0-0----|-2-2-2-2-2-2-2-2-|-3-3-3-3-3-3-3-3-|
 E-------------------------|-----------------|-----------------|

[1]^ [2] [3] [1]^ [2] [3] [1]^ [2] [1]^ [2] [3] [1]^ [2] [3] [1]^ [2] [1]^ [2] [3] [1]^ [2] [3] [1]^[2]
emphasis on the #1
 
 e-----------------|-----------------|-----------------|-----------------|
 B-----------------|-----------------|-----------------|-----------------|
 G-----------------|-----------------|-----------------|-----------------|
 D-----------------|-5-5-5-5-5-5-5-5-|-4-4-4-4-4-4-4-4-|-5-5-5-5-5-5-5-5-|
 A-4-4-4-4-4-4-4-4-|-3-3-3-3-3-3-3-3-|-2-2-2-2-2-2-2-2-|-3-3-3-3-3-3-3-3-|
 E-2-2-2-2-2-2-2-2-|-----------------|-----------------|-----------------|

[1]^ [2] [3] [1]^ [2] [3] [1]^ [2] [1]^ [2] [3] [1]^ [2] [3] [1]^ [2] [1]^ [2] [3] [1]^ [2] [3] [1]^ [2] [1]^ [2] [3] [1]^ [2] [3] [1]^[2]
 
 e-----------------|-----------------|
 B-----------------|-----------------|
 G-----------------|-----------------|
 D-----------------|-----------------|
 A-4-4-4-4-4-4-4-4-|-3-3-3-3-3-3-3-3-|
 E-2-2-2-2-2-2-2-2-|-1-1-1-1-1-1-1-1-|

[1]^ [2] [3] [1]^ [2] [3] [1]^ [2] [1]^ [2] [3] [4] [5] [6] [1]^[2]
Words:
verse 1 verse 2 verse 3
Come closer and see I hear her voice Suddenly I stop
See into the trees Calling my name But I know its too late
Find the girl The sound is deep Im los in a forest
While you can In the dark All alone
Come closer and see I hear her voice The girl was never there
See into the dark And start to run Its always the same
Just follow your eyes Into the trees Im running towards nothing
Just follow your eyes Into the trees Again and again and again...
comment/corrections welcome
 
 ---------------------------------------------------------------------------

A FOREST
By The Cure
I'm not sure as to the correctness of my notes, and I haven't
sat down to figure out the solo, but this is the main part
The bassline is just the same 4 chords..
[A] [C] [F] [D]  
just the first two strings (E and A)...
the opening is like:
 
 --------------|--------------|-----------------|----------------|----|
 --------------|--------------|-----------------|5357875353578753|----|
 --------------|--------------|-----------------|----------------|----|
 --3--2--1--2--|--3--2--1--2--|--3--5--7--3-2-1-|----------------|----|
 -0--0--0--0---|-0--0--0--0---|-0--0--0--0--0-0-|----------------|----|
 --------------|--------------|-----------------|----------------|----|
 --------------|------------------------------------------------------|
 --------------|------------------------------------------------------|
 --------------|------------------------------------------------------|
 --3--2--1--2--|------------------------------------------------------|
 -0--0--0--0---|------------------------------------------------------|
 --------------|------------------------------------------------------|
 ---------

Hotel Chelsea BBS (206)/432-6904

Important: The song above is NOT stored on the Chordie server. The original song is hosted at www.azchords.com. Chordie works as a search engine and provides on-the-fly formatting. Chordie does not index songs against artists'/composers' will. To remove this song please click here.

Text color:
Chord color:
Chord grids: 
Font size:    
Page size: 

A C D F
Rate #9 of 13 versions

Jango Player

Login - add to songbook

SHARE PAGE  



You need to log in to post comments