Guitar Tabs, Chords and Lyrics
Server problems seems to be fixed. Chordie has been experiencing problems with songs disappearing. These issues now seems to be fixed, but still verifying the fix. If you find anything strange, please email admin@chordie.com.


Pictures of You  The Cure

PICTURES OF YOU
rhythm figure 1
Intro:
 
 -------------------------------------------|-----------------------------------
 -------------------------------------------|-----------------------------------
 -------------------------------------------|-----------------------------------
 ------2---2-2-2---2-2----2-2-2/7--7--7--7--|4---4-4-4---4-4----4-4-4-4-4--4-4/2
 -------------------------------------------|-----------------------------------
 -------------------------------------------|-----------------------------------

guitar 2 (bass arranged for guitar)
 
 -------------------------------------------|-----------------------------------
 -------------------------------------------|-----------------------------------
 -------------------------------------------|-----------------------------------
 -------------------------------------------|-----------------------------------
 -------------------------------------------|-----------------------------------
 ------0---0-0-5---0-5----0-0-0--5/7--7--7--|2---2-2-7---2-7----2-2-2-7/9-9-9---
 -------------------------------------------|-----------------------------------
 -------------------------------------------|-----------------------------------
 -------------------------------------------|-----------------------------------
 ------2---2-2-2---2-2----2-2-2/7--7--7--7--|4---4-4-4---4-4----4-4-4-4-4--4-4/2
 -------------------------------------------|-----------------------------------
 -------------------------------------------|-----------------------------------
 -------------------------------------------|-----------------------------------
 -------------------------------------------|-----------------------------------
 -------------------------------------------|-----------------------------------
 -------------------------------------------|-----------------------------------
 -------------------------------------------|-----------------------------------
 ------0---0-0-5---0-5----0-0-0--5/7--7--7--|2---2-2-7---2-7----2-2-2-7/9-9-9---

with Rhythm figure 2(10 times)
 
 -------------------------------------------|-----------------------------------
 -------------------------------------------|-----------------------------------
 -------------------------------------------|-----------------------------------
 ------2----2--0-----0----------------------|------------------2------2---2---2-
 -----------------------4----------4--4--4--|2----------------------------------
 -------------------------------------------|-----------------------------------

end rhythm figure 1
 
 -------------------------------------------|-----------------------------------
 -------------------------------------------|-----------------------------------
 -------------------------------------------|-----------------------------------
 ------2----2--0-----0----------------------|------------------2------2---2---2-
 -----------------------4----------4--4--4--|2----------------------------------
 -------------------------------------------|-----------------------------------

with rhythm figure 1 (2 times)
guitar 3
 
 -----------------------------------------|-------------------------------------
 -----------------------------------------|-------------------------------------
 ------9---9-9-9----9-9----9-9-9-9-9-9-9--|7----7-7-7----7-7----7-7----7-7-7-7--
 -----------------------------------------|-------------------------------------
 -----------------------------------------|-------------------------------------
 -----------------------------------------|-------------------------------------
 -----------------------------------------|-------------------------------------
 -----------------------------------------|-------------------------------------
 ------6---6-6-6-6-6-6---6-6-6/7--7--7\---|2----2-2-2----2-2----2-2-2-4-4-4-4---
 -----------------------------------------|-------------------------------------
 -----------------------------------------|-------------------------------------
 -----------------------------------------|-------------------------------------
 -----------------------------------------|-------------------------------------
 -----------------------------------------|-------------------------------------
 ------4/6-6-6-----6-6---6-6----6-6-6-6---|7----7-7-7-7-7-7-----7-7--7/9-9-9----
 -----------------------------------------|-------------------------------------
 -----------------------------------------|-------------------------------------
 -----------------------------------------|-------------------------------------
 -----------------------------------------|-------------------------------------
 -----------------------------------------|-------------------------------------
 ------9-9-9-7----7-6-6-6-6-6-6-6--4-6----|2----2-2-2---2-2-----2-2---2-2-2-2---
 -----------------------------------------|-------------------------------------
 -----------------------------------------|-------------------------------------
 -----------------------------------------|-------------------------------------

[Am] [D]  
 
 ----------------------------------------|--------------------------------------
 ----------------------------------------|--------------------------------------
 ----------------------------------------|--------------------------------------
 ---9-9-9-9-9---9-9----11-11-11-11-9-9-9-|9-9-9-9-9----9-9-----11-11-11-11-9-9-9
 ----------------------------------------|--------------------------------------
 ----------------------------------------|--------------------------------------

Guitar 4 (6)=D
 
 ----------------------------------------|--------------------------------------
 ----------------------------------------|--------------------------------------
 ----------------------------------------|--------------------------------------
 ----------------------------------------|0------------------------------2------
 ---0----------------------------2-------|--------------------------------------
 ----------------------------------------|--------------------------------------

1.
[Am] [D]  
 
 ----------------------------------------|--------------------------------------
 ----------------------------------------|--------------------------------------
 -----------------------------11-11-11-11|--------------------------------------
 ----9-9-9-9-9---9-9--11-11-11-----------|9-9-9-9-9-9-9-9----------------9-9-9--
 ----------------------------------------|-------------------12-12-12-12--------
 ----------------------------------------|--------------------------------------
 ----------------------------------------|--------------------------------------
 ----------------------------------------|--------------------------------------
 ----------------------------------------|--------------------------------------
 ----------------------------------------|--------------------------------------
 ----0-------------------------2---------|--------------------------------------
 ----------------------------------------|0----------------------------2--------

2.
[D] [A]  
 
 ----------------------------------------|--------------------------------------
 ----------------------------------------|--------------------------------------
 ----------------------------------------|--------------------------------------
 -----9-9-9-9-9-9-9-9-----7-7-7-7-7-7-7--|------------------------------2-2-2-2-
 ----------------------------------------|0-----0-0--0---0-0----0-0-0-----------
 ----------------------------------------|--------------------------------------

Music: Smith/Gallup/Thompson/Williams/O'Donell/Tolhurst
********************************************************************************
* The movement is sharp clear pure / ADDR : University of West Australia *
* and God stopped and neiled beside you. / Dept : Winthrop Technology *
********************************************************************************

Important: The song above is NOT stored on the Chordie server. The original song is hosted at www.azchords.com. Chordie works as a search engine and provides on-the-fly formatting. Chordie does not index songs against artists'/composers' will. To remove this song please click here.

Text color:
Chord color:
Chord grids: 
Font size:    
Page size: 

A Am D
Rate #0 of 11 versions

Login - add to songbook

SHARE PAGE  



You need to log in to post comments