Guitar Tabs, Chords and Lyrics
Server problems seems to be fixed. Chordie has been experiencing problems with songs disappearing. These issues now seems to be fixed, but still verifying the fix. If you find anything strange, please email admin@chordie.com.


All I Want  Darius Rucker

INTRO LEAD
[A] [E] [B] [E]  
 
 E:-----16--14--12------------------------------------------------------------0----
 B:---------------------5-5----------------------------------------------5-5-------
 G:--/--16--14b-13----4b-4-4r-------4-x----------------------------4-4/6---7b---2br
 D:---------------------------2-4/6----x---------------------4-4/6----------------2
 A:-------------------------------------x---------2-4b-2-4/6-----------------------
 E:--------------------------------------2b-0-2/4----------------------------------

[E]Dont act surprised it aint [B]like you didnt kno[E]w
 
 E:--------------------------------------
 B:-------------5---5--------------------
 G:-----------4-4br-4--------------------
 D:-----2-4/6---------4b-2---------------
 A:-2h4----------------------------------
 E:------------------------2b-0----------

[E]Its been a long long time comin' and its[B] time for me to g[E]o
 
 E:---0-0------------------------------------------
 B:---0-0--------2p0-------------------------------
 G:-2b---2r--0-0-2p0--0----------------------------
 D:---------2-2------2--2-0------------------------
 A:-------------------------2p1p0-----2-4----------
 E:-------------------------------2h4--------------

[C#m]Time to split things up that drive us craz[A]y
 
 E:---5-------------------------2-2-2----2-2--------------------
 B:-----------------------------2-2-2----2-2--------------------
 G:-4b-4b-2---------------------3-3-3-2h3--3----4-----4---------
 D:-------------------7---------4-4-4------4----4---------------
 A:--------x5x4------7----------4-4-4------4----2--4/6--6\4-2---
 E:-------------5b--5--4b-2-----2-2-2------2--------------------

[F#]So Im gunna make this easy ba[B]by
[A]You can have the money
[E]You can have the house
[F#]Take the cadillac and that boat out back
[B]and your mothers [C#]pink and [D]yellow cou[B]ch
[A]You can have every p[E]enny that i'll ma[G#m]ke from this here so[C#]ng[B]
[A]Girl all I w[E]ant you to l[B]eave me is alon[E]e
He plays something simillair to the first part of this lick on the first E(hope that makes sense,
just listen to the song)
 
 E:---0-0---------------------------------
 B:---0-0--------2p0----------------------
 G:-2b---2r--0-0-2p0--0-------------------
 D:---------2-2------2--2-0---------------
 A:-------------------------2p1p0-----2-4-
 E:-------------------------------2h4-----

Then intro lick again:
 
 E:-----16--14--12------------------------------------------------------------0----
 B:---------------------5-5----------------------------------------------5-5-------
 G:--/--16--14b-13----4b-4-4r-------4-x----------------------------4-4/6---7b---2br
 D:---------------------------2-4/6----x---------------------4-4/6----------------2
 A:-------------------------------------x---------2-4b-2-4/6-----------------------
 E:--------------------------------------2b-0-2/4----------------------------------

[E]Dont get me wrong I will [B]always love you gir[E]l
[E]You were my life you were my [B]heart you were my worl[E]d
[C#m]But we both know its over theres no need to fight[A] it
[F#m]Girl I just need some peace and quie[B]t
Chorus
[A]You can have the money
[E]You can have the house
[F#]Take the cadillac and that boat out back
[B]and that ugly pin[C#]k and yel[D]low couch[B]
[A]You can have every p[E]enny that i'll ma[G#m]ke from this here so[C#]ng[B]
[A]Girl all I w[E]ant you to l[B]eave me is alon[E]e
Insturmental Break: A E A E A E B
Chorus
[A]You can have the money
[E]You can have the house
[F#]Take the big screen and the diamond ring
[B]and those shoes you sw[C#]ore you couldn't live [D]without [B]
[A]You can have every p[E]enny that i'll ma[G#m]ke from this here so[C#]ng[B]
[A]Girl all I w[E]ant you to l[B]eave me is alon[E]e
[A]Girl all I w[E]ant you to l[B]eave me is alon[E]e
 
 E:-----16--14--12------------------------------------------------------------0----
 B:---------------------5-5----------------------------------------------5-5-------
 G:--/--16--14b-13----4b-4-4r-------4-x----------------------------4-4/6---7b---2br
 D:---------------------------2-4/6----x---------------------4-4/6----------------2
 A:-------------------------------------x---------2-4b-2-4/6-----------------------
 E:--------------------------------------2b-0-2/4----------------------------------

I'm going to work on the few other licks, the solo and the end lick which is slightly
different than the one I put on the end, but still along the same lines. I hope you guys
enjoy playing this fun song :)

Important: The song above is NOT stored on the Chordie server. The original song is hosted at www.azchords.com. Chordie works as a search engine and provides on-the-fly formatting. Chordie does not index songs against artists'/composers' will. To remove this song please click here.

Text color:
Chord color:
Chord grids: 
Font size:    
Page size: 

A B C# C#m D E F# F#m G#m
Rate #1 of 4 versions

Jango Player

Login - add to songbook

SHARE PAGE  




You need to log in to post comments