Guitar Tabs, Chords and Lyrics
Major upgrade!! After one year development the new version of Chordie is now online! Please give feedback.


I Miss My Friend  Darryl Worley

Darryl Worley - I Miss My Friend (with picking pattern)
A(add9) = x02200 E = 022100
B = x24442 A = x02220
E/Ab = 42245x Dbm = x46654
F#m = 244222 Bsus = x24452
Abm = 466444 F#sus = 244422
F# = 244322 E(maj7)/Ab = 42244x
***********************************************************************
A(add9) E B E (x2)
INTRO
[A]I miss the [E/Ab]look of sur[B]render in your [Dbm]eyes,
[A]The way your [E/Ab]soft brown hair would [B]fall.
[A]I miss the [E/Ab]power of your [B]kiss when we made [Dbm]love,[F#m]
Oh, but baby most of [A]all, I miss my [Bsus]friend.[B]
The [E]one my heart and soul confided [Bsus]in,[B]
The one I [Abm]felt the safest with.
The [Dbm]one who knew just [B]what to [Bsus]say,
[F#sus]To make me laugh a[F#]gain[Abm] [A] and let the light back [Bsus]in.[B]
I miss my fri[A(add9)]end. [E] [B] [E]
[A]I miss the [E/Ab]colours that you [B]brought into my [Dbm]life,
[A]Your golden [E/Ab]smile, those blue-green [B]eyes.
[A]I miss your [E/Ab]gentle voice,[B] in lonely times like [Dbm]now,[F#m]
Saying it'll be al[A]right, I miss my [Bsus]friend.[B]
The [E]one my heart and soul confided [Bsus]in,[B]
The one I [Abm]felt the safest with.
The [Dbm]one who knew just [B]what to [Bsus]say,
[F#sus]To make me laugh a[F#]gain[Abm] [A] and let the light back [Bsus]in.[B]
I miss my fri[A(add9)]end. [E]
I miss those [A]times, I miss those [E(maj7)/Ab]nights.[E/Ab]
I even [F#m]miss our silly [E]fights.
The making [A]up, the morning [E(maj7)/Ab]talks,[E/Ab]
And those [F#m]late afternoon [A]walks.
I miss my [Bsus]friend.[B]
The [E]one my heart and soul confided [Bsus]in,[B]
The one I [Abm]felt the safest with.
The [Dbm]one who knew just [B]what to [Bsus]say,
[F#sus]To make me laugh a[F#]gain[Abm] [A] and let the light back [Bsus]in.
A(add9) E B E (x2) (same picking as intro)
I miss my friend.
A(add9) E B E (x2) (same picking as intro)
I miss my friend.
A(add9) E B E (x2) (same picking as intro)
I miss my friend.
***********************************************************************
PICKING PATTERNS
I've just tabbed the picking for intro and verse, as the rest of the
song sounds as though it is just strummed.
INTRO (arranged for guitar)
[A(add9)] [E] [B] [E] [A(add9)] [E] [B] [E] 
 
 E---------0-------------------------0-------------------|
 B------0-------------------------0----------------------|
 G--1h2------1--2-1-----4-1---1h2------1--2-1------------|
 D--------2--2-----4-2-4--2---------2--2-----4-2-4-2-2---|
 A------0--------------2----------0--------------2-------|
 E-----------0------------0------------0-------------0---|

PICKING PATTERN IN VERSE
[A] [E/Ab] [B] [Dbm] [A] [E/Ab] [B] 
 
 E--------------------------------------------------2/4--------------
 B-----2-----------2h4-----------------2---------------7-5-7--4\2-0--
 G----2-2--4------4---4---------------2-2--4-------4-----------------
 D---2-------2---4---------1/2-------2-------2----4-----------4\2-1--
 A--0-------2---2---------2---4-2---0-------2--0-2-------------------
 E---------4-------------4-------4---------4--4----------------------

[A] [E/Ab] [B] [Dbm] [F#m] [A] [Bsus] [B] 
 
 E-------------------------------------------------0--------------2--|
 B-----2------------2h4-------5-4-2-----2---------2-2--------5----4--|
 G----2----4-------4---4---------------2---------2---2-2----4-4---4--|
 D---2-------2----4--------4/6--4-----4---------2-----2----4---4--4--|
 A--0---0---2-2--2--------4----------4---------0----------2-------2--|
 E---------4----------------------2-2-------2-4----------------------|


Important: The song above is NOT stored on the Chordie server. The original song is hosted at www.azchords.com. Chordie works as a search engine and provides on-the-fly formatting. Chordie does not index songs against artists'/composers' will. To remove this song please click here.

Text color:
Chord color:
Chord grids: 
Font size:    
Page size: 

A A(add9) Abm B Bsus Dbm E E/Ab F# F#m F#sus
Rate #1 of 10 versions

Login - add to songbook

SHARE PAGE  



You need to log in to post comments