Guitar Tabs, Chords and Lyrics
Update 25:10. 13:00. Site is back up running again. Songbooks are recovered. Woring on getting search back up..


Please Come to Boston  Dave Loggins

Tuning: Drop D, Capo II
Intro
[Gmaj7]1 a 2 a 3 a 4 a|1 a 2 a 3 a 4 a|[Gmaj7]1 a 2 a 3 a 4 a|1 a 2 a 3 a 4 a
 
 e-|------------------------------------------------------------------|
 B-|----------3--------(3)--------------------3--------(3)------------|
 G-|--------0--(0)---(0)------0--------(0)--0??-(0)---(0)------0-------|
 D-|------4-------4p0-----0h2-------------4-------4p0-----0h2---------|
 A-|------------------------------------------------------------------|
 D-|--5-------------------------------5-------------------------------|

[D]1 a 2 a 3 a 4 a|1 a 2 a 3 a 4 a|[D]1 a 2 a 3 a 4 a|1 a 2 a 3 a 4 a
 
 e-|------------2-----3p0-----0h2---------------2-----3p0-----0h2-----|
 B-|----------------------3-------3-----------3-----------3-------3---|
 G-|------0h2-------2-------2-------2-----0h2-------2-------2-------2-|
 D-|------------------------------------------------------------------|
 A-|------------------------------------------------------------------|
 D-|--0-------------------------------0-------------------------------|

______________________________________________________________________
Verse #1
[D]1 a 2 a 3 a 4 a|1 a 2 a 3 a 4 a|[Gmaj7]1 a 2 a 3 a 4 a|1 a 2 a 3 a 4 a
 
 e-|------------2-----3p0-----0h2-------------------------------------|
 B-|----------------------3-------3-----------3--------(3)------------|
 G-|------0h2-------2-------2-------2-------0??-(0)---(0)------0-------|
 D-|--------------------------------------4-------4p0-----0h2---------|
 A-|------------------------------------------------------------------|
 D-|--0-------------------------------5-------------------------------|

Please come to Boston for the Springtime
[D]1 a 2 a 3 a 4 a|1 a 2 a 3 a 4 a|[Gmaj7]1 a 2 a 3 a 4 a|1 a 2 a 3 a 4 a
 
 e-|------------2-----3p0-----0h2-------------------------------------|
 B-|----------------------3-------3-----------3--------(3)------------|
 G-|------0h2-------2-------2-------2-------0??-(0)---(0)------0-------|
 D-|--------------------------------------4-------4p0-----0h2---------|
 A-|------------------------------------------------------------------|
 D-|--0-------------------------------5-------------------------------|

I'm staying here with some friends and they've got
Lots of room
[Asus7]1 a 2 a 3 a 4 a|[A7]1 a 2 a 3 a 4 a|[D]1 a 2 a 3 a 4 a|1 a 2 a 3 a 4 a
 
 e-|----------------------------------------0-------0-------2-------3-|
 B-|--------3---------------2-------2-----------3---------------3-----|
 G-|------------0??-(0)----------0---------2-------2-------2-------2---|
 D-|------2-------2-------2-------2---0---------------0---------------|
 A-|---0--------------0-----------------------------------------------|
 D-|------------------------------------------------------------------|

And You can sell your paintings on the By a
sidewalk
|[Bm]1 a 2 a 3 a 4 a|[Bm]1 a 2 a 3 a 4 a|[Gmaj7]1 a 2 a 3 a 4 a|1 a 2 a 3 a 4 a
 
 e-|--------2-------2-----2-------2-----------------------------------|
 B-|------------3-----------3-------3---------3--------(3)------------|
 G-|--4---4-------4--??0-------0-------------0??-(0)---(0)------0-------|
 D-|--------------------------------------4-------4p0-----0h2---------|
 A-|--2---------------2-------0---------------------------------------|
 D-|----------------------------------5-------------------------------|

Cafe where I hope to be workin' soon
|[D]1 a 2 a 3 a 4 a|1 a 2 a 3 a 4 a|[Asus7]1 a 2 a 3 a 4 a|[A7]1 a 2 a 3 a 4 a
 
 e-|------------2-----3p0-----0h2-------------------------------------|
 B-|----------------------3-------3---3-------3-----------2-------2---|
 G-|------0h2-------2-------2-------2-------0-----0---0-------0-------|
 D-|--------------------------------------2---------2---2-------0-----|
 A-|----------------------------------0-------------------------------|
 D-|--0---------------------------------------------------------------|

Please come to boston... no, would you come home to
|[D]1 a 2 a 3 a 4 a|1 a 2 a 3 a 4 a
 
 e-|--2-----2-----3---2-----2-----3---|
 B-|--3-------3-----3---------3-----3-|
 G-|--2---2-----2---------2-----2-----|
 D-|--0-------2-------0-------2-------|
 A-|----------------------------------|
 D-|----------------------------------|

Me and she said
______________________________________________________________________
Chorus
|[D]1 a 2 a 3 a 4 a|[A7]1 a 2 a [D]3 a 4 a
 
 e-|--------2-------2---------------2-|
 B-|------------3-----------2---------|
 G-|------2-------2---------------2---|
 D-|--0-------------------2---0-------|
 A-|------------------0---------------|
 D-|----------------------------------|

Hey ramblin' boy why don't you
settle
down
|[D]1 a 2 a 3 a 4 a|[A7]1 a 2 a [D]3 a 4 a
 
 e-|--------2-------2---------------2-|
 B-|------------3-----------2---------|
 G-|------2-------2---------------2---|
 D-|--0-------------------2---0-------|
 A-|------------------0---------------|
 D-|----------------------------------|

Boston ain't your
kind of
town There
|[D]1 a 2 a 3 a 4 a|[Dmaj7]1 a 2 a 3 a 4 a|[Gmaj7]1 a 2 a 3 a 4 a|1 a 2 a 3 a 4 a
 
 e-|--------2-------2-----------2-------------------------------------|
 B-|------------3-----------2-----2-----------3--------(3)------------|
 G-|------2-------2-------2---------2-------0??-(0)---(0)------0-------|
 D-|--0---------------0-------------------4-------4p0-----0h2---------|
 A-|------------------------------------------------------------------|
 D-|----------------------------------5-------------------------------|

Ain't no gold and there
Ain't nobody like
Me 'cause I'm the
[Em7]1 a 2 a 3 a 4 a|[A7]1 a 2 a 3 a 4 a|[D]1 a 2 a 3 a 4 a|1 a 2 a 3 a 4 a
 
 e-|--------------------------------------------2-----030-----0h2-----|
 B-|--------3---------------2-----------------------------3-------3---|
 G-|------------0---0-----------0---0-----0h2-------2--------2------2-|
 D-|------2-------2-------2-------2-----------------------------------|
 A-|------------------0-----------------------------------------------|
 D-|--2-------------------------------0-------------------------------|

Number one fan of the
Man from
Tennessee
________________________________________________________________________
Verse #2 (same picking as above, with lyrics and chord changes as shown)
[D]Please come to Denver, with the [Gmaj7]snow fall
We'll [D]move up into the mountains so high that we [Gmaj7]can t be found
[Asus7]Throw "I love you" [A7]echoes down the [D]canyon
And then [Bm]lie awake at [Bm]night til they come [Gmaj7]back around
[D]Please come to Denver
She said "[Asus7]No, Baby you come [A7]home to [D]me' and she said
______________________________________________________________________
Chorus (same as above)
______________________________________________________________________
Solo a Bridge
[D]1 a 2 a 3 a 4 a|1 a 2 a 3 a 4 a|[Gmaj7]1 a 2 a 3 a 4 a|[Em]1 a 2 a 3 a 4 a
 
 e-|------------2-----3p0-----0h2-------------------------------------|
 B-|----------------------3-------3-----------3--------(3)------------|
 G-|------0h2-------2-------2-------2--(0)--0??-(0)---(0)------0-------|
 D-|--------------------------------------4-------4p0-----0h2---------|
 A-|------------------------------------------------------------------|
 D-|--0-------------------------------5-------------------------------|

[Em]1 a 2 a 3 a 4 a|[G]1 a 2 a [A7]3 a 4 a|[D]1 a 2 a 3 a 4 a|1 a 2 a 3 a 4 a
 
 e-|----------------------------------------0---0-0h2-----------------|
 B-|----0-------0-------0-------2---------3---3-----------------------|
 G-|--------0-------0-------0-------0---2-------0-0h2-----------------|
 D-|------2-------4-------4-------2---0-------------------------------|
 A-|--------------------------0---------------------------------------|
 D-|--2-------4-------5-----------------------------------------------|

Now this
[Bm]1 a 2 a 3 a 4 a|[A]1 a 2 a 3 a 4 a|[G]1 a 2 a [A7]3 a 4 a|[D]1 a 2 a 3 a 4 a
 
 e-|--------2-------2-0---------0---------------------2---------2-----|
 B-|------------3-----------2-----2---0-------2-------3-----3-----3---|
 G-|--4---4-------4-------2---------2-0-----0-0-----0-2---2---------2-|
 D-|------------------2---------------4---4---2---2---0---------------|
 A-|--2---------------------------------------0-----------------------|
 D-|----------------------------------5-------------------------------|

Drifters world goes
Round and round and I
doubt that its
ever gonna
stop
[Bm]1 a 2 a 3 a 4 a|[A]1 a 2 a 3 a 4 a|[Gmaj7]1 a 2 a 3 a 4 a|[Gmaj7]1 a 2 a 3 a 4 a
 
 e-|--------2-------2-0---------0-------------------------------------|
 B-|------------3-----------2-----2---------3-------3-------3-------3-|
 G-|--4---4-------4-------2---------2-----------0---------------0-----|
 D-|------------------2-------------------4-------4-------4-------4---|
 A-|--2---------------------------------------------------------------|
 D-|----------------------------------5---------------5---------------|

But of all the dreams I've
Lost and found and
All that I ain't got
[Em7]1 a 2 a 3 a 4 a|[Em7]1 a 2 a 3 a 4 a|[A7sus]1 a 2 a 3 a 4 a|[A7]1 a 2 a 3 a 4 a
 
 e-|------------------------------------------------------------------|
 B-|--------3-------3-------3-------3-------3-------3-------2-------2-|
 G-|------------0---------------0---------------0---------------0-----|
 D-|------2-------2-------2-------2-------2-------2-------2-------2---|
 A-|----------------------------------0---------------0---------------|
 D-|--2---------------2-----------------------------------------------|

I still need to lean to
Somebody I can sing to
________________________________________________________________________
Verse #3 (same picking as above, with lyrics and chord changes as shown)
[D]Please come to L.A., to live for[Gmaj7]ever
The [D]California life alone is [Gmaj7]just to hard to bear
[Asus7]Throw "I love you" [A7]echoes down the [D]canyon
And then [Bm]lie awake at [Bm]night til they come [Gmaj7]back around
[D]Please come to LA
She said "[Asus7]No, Baby you come [A7]home to [D]me' and she said
_______________________________________________________________________
Chorus (same as above, except ending as follows)
[Em7]1 a 2 a 3 a 4 a|[A7]1 a 2 a 3 a 4 a|[D]1 a 2 a 3 a 4 a|1 a 2 a 3 a 4 a
 
 e-|----------------------------------------0-------0-------0-------0-|
 B-|--------3---------------2-------------------3---------------3-----|
 G-|------------0---0-----------0---0-----2-------2-------2-------2---|
 D-|------2-------2-------2-------2---0---------------0---------------|
 A-|------------------0-----------------------------------------------|
 D-|--2---------------------------------------------------------------|

Number one fan of the yea I'm the
Man from
Tennessee
[Em7]1 a 2 a 3 a 4 a|[A7]1 a 2 a 3 a 4 a|[D]1 a 2 a 3 a 4 a
 
 e-|------------------------------------------0---0h2-|
 B-|--------3---------------2---------------3---3-----|
 G-|------------0---0-----------0---0-----2-------0h2-|
 D-|------2-------2-------2-------2---0---------------|
 A-|------------------0-------------------------------|
 D-|--2-----------------------------------------------|

Number one fan of the
Man from
Tennessee

Important: The song above is NOT stored on the Chordie server. The original song is hosted at www.azchords.com. Chordie works as a search engine and provides on-the-fly formatting. Chordie does not index songs against artists'/composers' will. To remove this song please click here.

Text color:
Chord color:
Chord grids: 
Font size:    
Page size: 

A A7 A7sus Asus7 Bm D Dmaj7 Em Em7 G Gmaj7
Rate #2 of 5 versions

Login - add to songbook

SHARE PAGE  




You need to log in to post comments